  0
SECTION
  2
HEADER
  9
$ACADVER
  1
AC1024
  9
$ACADMAINTVER
 70
     6
  9
$DWGCODEPAGE
  3
ANSI_932
  9
$INSBASE
 10
0.0
 20
0.0
 30
0.0
  9
$EXTMIN
 10
-1004.495599464166
 20
-453.7960807117845
 30
0.0
  9
$EXTMAX
 10
1028.725163837255
 20
482.9137479083137
 30
0.0
  9
$LIMMIN
 10
-840.0
 20
-594.0
  9
$LIMMAX
 10
840.0
 20
594.0
  9
$ORTHOMODE
 70
     0
  9
$REGENMODE
 70
     1
  9
$FILLMODE
 70
     1
  9
$QTEXTMODE
 70
     0
  9
$MIRRTEXT
 70
     1
  9
$LTSCALE
 40
1.0
  9
$ATTMODE
 70
     1
  9
$TEXTSIZE
 40
0.2
  9
$TRACEWID
 40
0.05
  9
$TEXTSTYLE
  7
Standard
  9
$CLAYER
  8
0
  9
$CELTYPE
  6
ByLayer
  9
$CECOLOR
 62
   256
  9
$CELTSCALE
 40
1.0
  9
$DISPSILH
 70
     0
  9
$DIMSCALE
 40
1.0
  9
$DIMASZ
 40
12.00000762939453
  9
$DIMEXO
 40
1.0
  9
$DIMDLI
 40
10.0
  9
$DIMRND
 40
0.0
  9
$DIMDLE
 40
0.0
  9
$DIMEXE
 40
1.0
  9
$DIMTP
 40
0.0
  9
$DIMTM
 40
0.0
  9
$DIMTXT
 40
12.8
  9
$DIMCEN
 40
0.0
  9
$DIMTSZ
 40
0.0
  9
$DIMTOL
 70
     0
  9
$DIMLIM
 70
     0
  9
$DIMTIH
 70
     0
  9
$DIMTOH
 70
     0
  9
$DIMSE1
 70
     0
  9
$DIMSE2
 70
     0
  9
$DIMTAD
 70
     1
  9
$DIMZIN
 70
     8
  9
$DIMBLK
  1

  9
$DIMASO
 70
     1
  9
$DIMSHO
 70
     1
  9
$DIMPOST
  1

  9
$DIMAPOST
  1

  9
$DIMALT
 70
     0
  9
$DIMALTD
 70
     2
  9
$DIMALTF
 40
0.0393700787401575
  9
$DIMLFAC
 40
1.0
  9
$DIMTOFL
 70
     0
  9
$DIMTVP
 40
0.0
  9
$DIMTIX
 70
     0
  9
$DIMSOXD
 70
     0
  9
$DIMSAH
 70
     0
  9
$DIMBLK1
  1

  9
$DIMBLK2
  1

  9
$DIMSTYLE
  2
Standard
  9
$DIMCLRD
 70
     0
  9
$DIMCLRE
 70
     0
  9
$DIMCLRT
 70
     0
  9
$DIMTFAC
 40
0.65
  9
$DIMGAP
 40
0.09
  9
$DIMJUST
 70
     0
  9
$DIMSD1
 70
     0
  9
$DIMSD2
 70
     0
  9
$DIMTOLJ
 70
     0
  9
$DIMTZIN
 70
     0
  9
$DIMALTZ
 70
     0
  9
$DIMALTTZ
 70
     0
  9
$DIMUPT
 70
     0
  9
$DIMDEC
 70
     2
  9
$DIMTDEC
 70
     2
  9
$DIMALTU
 70
     2
  9
$DIMALTTD
 70
     2
  9
$DIMTXSTY
  7
Standard
  9
$DIMAUNIT
 70
     0
  9
$DIMADEC
 70
     2
  9
$DIMALTRND
 40
0.0
  9
$DIMAZIN
 70
     2
  9
$DIMDSEP
 70
    46
  9
$DIMATFIT
 70
     3
  9
$DIMFRAC
 70
     0
  9
$DIMLDRBLK
  1

  9
$DIMLUNIT
 70
     2
  9
$DIMLWD
 70
    -2
  9
$DIMLWE
 70
    -2
  9
$DIMTMOVE
 70
     0
  9
$DIMFXL
 40
1.0
  9
$DIMFXLON
 70
     0
  9
$DIMJOGANG
 40
0.7853981633974483
  9
$DIMTFILL
 70
     0
  9
$DIMTFILLCLR
 70
     0
  9
$DIMARCSYM
 70
     1
  9
$DIMLTYPE
  6

  9
$DIMLTEX1
  6

  9
$DIMLTEX2
  6

  9
$DIMTXTDIRECTION
 70
     0
  9
$LUNITS
 70
     2
  9
$LUPREC
 70
     4
  9
$SKETCHINC
 40
0.1
  9
$FILLETRAD
 40
0.5
  9
$AUNITS
 70
     0
  9
$AUPREC
 70
     0
  9
$MENU
  1
.
  9
$ELEVATION
 40
0.0
  9
$PELEVATION
 40
0.0
  9
$THICKNESS
 40
0.0
  9
$LIMCHECK
 70
     0
  9
$CHAMFERA
 40
0.0
  9
$CHAMFERB
 40
0.0
  9
$CHAMFERC
 40
0.0
  9
$CHAMFERD
 40
0.0
  9
$SKPOLY
 70
     0
  9
$TDCREATE
 40
2461075.594198727
  9
$TDUCREATE
 40
2461075.219198727
  9
$TDUPDATE
 40
2461075.594198785
  9
$TDUUPDATE
 40
2461075.219198785
  9
$TDINDWG
 40
0.0000000116
  9
$TDUSRTIMER
 40
0.0000000116
  9
$USRTIMER
 70
     1
  9
$ANGBASE
 50
0.0
  9
$ANGDIR
 70
     0
  9
$PDMODE
 70
     0
  9
$PDSIZE
 40
1.0
  9
$PLINEWID
 40
0.0
  9
$SPLFRAME
 70
     0
  9
$SPLINETYPE
 70
     6
  9
$SPLINESEGS
 70
     8
  9
$HANDSEED
  5
431
  9
$SURFTAB1
 70
     6
  9
$SURFTAB2
 70
     6
  9
$SURFTYPE
 70
     6
  9
$SURFU
 70
     6
  9
$SURFV
 70
     6
  9
$UCSBASE
  2

  9
$UCSNAME
  2

  9
$UCSORG
 10
0.0
 20
0.0
 30
0.0
  9
$UCSXDIR
 10
1.0
 20
0.0
 30
0.0
  9
$UCSYDIR
 10
0.0
 20
1.0
 30
0.0
  9
$UCSORTHOREF
  2

  9
$UCSORTHOVIEW
 70
     0
  9
$UCSORGTOP
 10
0.0
 20
0.0
 30
0.0
  9
$UCSORGBOTTOM
 10
0.0
 20
0.0
 30
0.0
  9
$UCSORGLEFT
 10
0.0
 20
0.0
 30
0.0
  9
$UCSORGRIGHT
 10
0.0
 20
0.0
 30
0.0
  9
$UCSORGFRONT
 10
0.0
 20
0.0
 30
0.0
  9
$UCSORGBACK
 10
0.0
 20
0.0
 30
0.0
  9
$PUCSBASE
  2

  9
$PUCSNAME
  2

  9
$PUCSORG
 10
0.0
 20
0.0
 30
0.0
  9
$PUCSXDIR
 10
1.0
 20
0.0
 30
0.0
  9
$PUCSYDIR
 10
0.0
 20
1.0
 30
0.0
  9
$PUCSORTHOREF
  2

  9
$PUCSORTHOVIEW
 70
     0
  9
$PUCSORGTOP
 10
0.0
 20
0.0
 30
0.0
  9
$PUCSORGBOTTOM
 10
0.0
 20
0.0
 30
0.0
  9
$PUCSORGLEFT
 10
0.0
 20
0.0
 30
0.0
  9
$PUCSORGRIGHT
 10
0.0
 20
0.0
 30
0.0
  9
$PUCSORGFRONT
 10
0.0
 20
0.0
 30
0.0
  9
$PUCSORGBACK
 10
0.0
 20
0.0
 30
0.0
  9
$USERI1
 70
     0
  9
$USERI2
 70
     0
  9
$USERI3
 70
     0
  9
$USERI4
 70
     0
  9
$USERI5
 70
     0
  9
$USERR1
 40
0.0
  9
$USERR2
 40
0.0
  9
$USERR3
 40
0.0
  9
$USERR4
 40
0.0
  9
$USERR5
 40
0.0
  9
$WORLDVIEW
 70
     1
  9
$SHADEDGE
 70
     3
  9
$SHADEDIF
 70
    70
  9
$TILEMODE
 70
     1
  9
$MAXACTVP
 70
    64
  9
$PINSBASE
 10
0.0
 20
0.0
 30
0.0
  9
$PLIMCHECK
 70
     0
  9
$PEXTMIN
 10
1.000000000000000E+20
 20
1.000000000000000E+20
 30
1.000000000000000E+20
  9
$PEXTMAX
 10
-1.000000000000000E+20
 20
-1.000000000000000E+20
 30
-1.000000000000000E+20
  9
$PLIMMIN
 10
0.0
 20
0.0
  9
$PLIMMAX
 10
12.0
 20
9.0
  9
$UNITMODE
 70
     0
  9
$VISRETAIN
 70
     0
  9
$PLINEGEN
 70
     1
  9
$PSLTSCALE
 70
     0
  9
$TREEDEPTH
 70
  3020
  9
$CMLSTYLE
  2
Standard
  9
$CMLJUST
 70
     0
  9
$CMLSCALE
 40
1.0
  9
$PROXYGRAPHICS
 70
     0
  9
$MEASUREMENT
 70
     1
  9
$CELWEIGHT
370
    -1
  9
$ENDCAPS
280
     0
  9
$JOINSTYLE
280
     0
  9
$LWDISPLAY
290
     1
  9
$INSUNITS
 70
     4
  9
$HYPERLINKBASE
  1

  9
$STYLESHEET
  1

  9
$XEDIT
290
     1
  9
$CEPSNTYPE
380
     0
  9
$PSTYLEMODE
290
     1
  9
$FINGERPRINTGUID
  2
{bfee0ac6-a2a8-40bb-92f3-ba9d6ede4a4d}
  9
$VERSIONGUID
  2
{FAEB1C32-E019-11D5-929B-00C0DF256EC4}
  9
$EXTNAMES
290
     1
  9
$PSVPSCALE
 40
0.0
  9
$OLESTARTUP
290
     0
  9
$SORTENTS
280
   127
  9
$INDEXCTL
280
     0
  9
$HIDETEXT
280
     1
  9
$XCLIPFRAME
280
     2
  9
$HALOGAP
280
     0
  9
$OBSCOLOR
 70
   257
  9
$OBSLTYPE
280
     0
  9
$INTERSECTIONDISPLAY
280
     0
  9
$INTERSECTIONCOLOR
 70
   257
  9
$DIMASSOC
280
     2
  9
$PROJECTNAME
  1

  9
$CAMERADISPLAY
290
     0
  9
$LENSLENGTH
 40
50.0
  9
$CAMERAHEIGHT
 40
0.0
  9
$STEPSPERSEC
 40
2.0
  9
$STEPSIZE
 40
6.0
  9
$3DDWFPREC
 40
2.0
  9
$PSOLWIDTH
 40
0.25
  9
$PSOLHEIGHT
 40
4.0
  9
$LOFTANG1
 40
1.570796326794897
  9
$LOFTANG2
 40
1.570796326794897
  9
$LOFTMAG1
 40
0.0
  9
$LOFTMAG2
 40
0.0
  9
$LOFTPARAM
 70
     7
  9
$LOFTNORMALS
280
     1
  9
$LATITUDE
 40
37.795
  9
$LONGITUDE
 40
-122.394
  9
$NORTHDIRECTION
 40
0.0
  9
$TIMEZONE
 70
 -8000
  9
$LIGHTGLYPHDISPLAY
280
     1
  9
$TILEMODELIGHTSYNCH
280
     1
  9
$CMATERIAL
347
44
  9
$SOLIDHIST
280
     0
  9
$SHOWHIST
280
     1
  9
$DWFFRAME
280
     2
  9
$DGNFRAME
280
     2
  9
$REALWORLDSCALE
290
     1
  9
$INTERFERECOLOR
 62
   256
  9
$CSHADOW
280
     0
  9
$SHADOWPLANELOCATION
 40
0.0
  0
ENDSEC
  0
SECTION
  2
CLASSES
  0
CLASS
  1
ACDBDICTIONARYWDFLT
  2
AcDbDictionaryWithDefault
  3
ObjectDBX Classes
 90
        0
 91
        3
280
     0
281
     0
  0
CLASS
  1
VISUALSTYLE
  2
AcDbVisualStyle
  3
ObjectDBX Classes
 90
     4095
 91
        3
280
     0
281
     0
  0
CLASS
  1
MATERIAL
  2
AcDbMaterial
  3
ObjectDBX Classes
 90
     1153
 91
        3
280
     0
281
     0
  0
CLASS
  1
SCALE
  2
AcDbScale
  3
ObjectDBX Classes
 90
     1153
 91
        3
280
     0
281
     0
  0
CLASS
  1
TABLESTYLE
  2
AcDbTableStyle
  3
ObjectDBX Classes
 90
     4095
 91
        3
280
     0
281
     0
  0
CLASS
  1
MLEADERSTYLE
  2
AcDbMLeaderStyle
  3
ACDB_MLEADERSTYLE_CLASS
 90
     4095
 91
        3
280
     0
281
     0
  0
CLASS
  1
SUN
  2
AcDbSun
  3
SCENEOE
 90
     1153
 91
        3
280
     0
281
     0
  0
CLASS
  1
DICTIONARYVAR
  2
AcDbDictionaryVar
  3
ObjectDBX Classes
 90
        0
 91
        3
280
     0
281
     0
  0
CLASS
  1
CELLSTYLEMAP
  2
AcDbCellStyleMap
  3
ObjectDBX Classes
 90
     1152
 91
        3
280
     0
281
     0
  0
ENDSEC
  0
SECTION
  2
TABLES
  0
TABLE
  2
VPORT
  5
8
330
0
100
AcDbSymbolTable
 70
     1
  0
VPORT
  5
29
330
8
100
AcDbSymbolTableRecord
100
AcDbViewportTableRecord
  2
*Active
 70
     0
 10
0.0
 20
0.0
 11
1.0
 21
1.0
 12
12.11478218654429
 22
26.35962181571942
 13
0.0
 23
0.0
 14
0.5
 24
0.5
 15
0.5
 25
0.5
 16
0.0
 26
0.0
 36
1.0
 17
0.0
 27
0.0
 37
0.0
 40
294.4077337672255
 41
2.348087296066271
 42
50.0
 43
0.0
 44
0.0
 50
0.0
 51
0.0
 71
     0
 72
  1000
 73
     1
 74
     1
 75
     0
 76
     0
 77
     0
 78
     0
281
     0
 65
     1
110
0.0
120
0.0
130
0.0
111
1.0
121
0.0
131
0.0
112
0.0
122
1.0
132
0.0
 79
     0
146
0.0
348
2F
 60
     3
 61
     5
292
     1
282
     1
141
0.0
142
0.0
 63
   250
361
6D
  0
ENDTAB
  0
TABLE
  2
LTYPE
  5
5
330
0
100
AcDbSymbolTable
 70
    67
  0
LTYPE
  5
14
330
5
100
AcDbSymbolTableRecord
100
AcDbLinetypeTableRecord
  2
ByBlock
 70
     0
  3

 72
    65
 73
     0
 40
0.0
  0
LTYPE
  5
15
330
5
100
AcDbSymbolTableRecord
100
AcDbLinetypeTableRecord
  2
ByLayer
 70
     0
  3

 72
    65
 73
     0
 40
0.0
  0
LTYPE
  5
16
330
5
100
AcDbSymbolTableRecord
100
AcDbLinetypeTableRecord
  2
Continuous
 70
     0
  3
Solid line
 72
    65
 73
     0
 40
0.0
  0
LTYPE
  5
6F
330
5
100
AcDbSymbolTableRecord
100
AcDbLinetypeTableRecord
  2
HIDDENX2
 70
     0
  3
Hidden (2x) ____ ____ ____ ____ ____ ____ ____ 
 72
    65
 73
     2
 40
19.05
 49
12.7
 74
     0
 49
-6.35
 74
     0
  0
LTYPE
  5
70
330
5
100
AcDbSymbolTableRecord
100
AcDbLinetypeTableRecord
  2
HIDDEN
 70
     0
  3
Hidden __ __ __ __ __ __ __ __ __ __ __ __ __ __
 72
    65
 73
     2
 40
9.524999999999999
 49
6.35
 74
     0
 49
-3.175
 74
     0
  0
LTYPE
  5
71
330
5
100
AcDbSymbolTableRecord
100
AcDbLinetypeTableRecord
  2
HIDDEN2
 70
     0
  3
Hidden (.5x) _ _ _ _ _ _ _ _ _ _ _ _ _ _ _ _ _ 
 72
    65
 73
     2
 40
4.762499999999999
 49
3.175
 74
     0
 49
-1.5875
 74
     0
  0
LTYPE
  5
72
330
5
100
AcDbSymbolTableRecord
100
AcDbLinetypeTableRecord
  2
DASHED
 70
     0
  3
Dashed __ __ __ __ __ __ __ __ __ __ __ __ __ _
 72
    65
 73
     2
 40
19.05
 49
12.7
 74
     0
 49
-6.35
 74
     0
  0
LTYPE
  5
73
330
5
100
AcDbSymbolTableRecord
100
AcDbLinetypeTableRecord
  2
DASHED2
 70
     0
  3
Dashed (.5x) _ _ _ _ _ _ _ _ _ _ _ _ _ _ _ _ _ 
 72
    65
 73
     2
 40
9.524999999999999
 49
6.35
 74
     0
 49
-3.175
 74
     0
  0
LTYPE
  5
74
330
5
100
AcDbSymbolTableRecord
100
AcDbLinetypeTableRecord
  2
DASHEDX2
 70
     0
  3
Dashed (2x) ____  ____  ____  ____  ____  ___
 72
    65
 73
     2
 40
38.09999999999999
 49
25.4
 74
     0
 49
-12.7
 74
     0
  0
LTYPE
  5
75
330
5
100
AcDbSymbolTableRecord
100
AcDbLinetypeTableRecord
  2
DOTX2
 70
     0
  3
Dot (2x) .  .  .  .  .  .  .  .  .  .  .  .  .  .
 72
    65
 73
     2
 40
12.7
 49
0.0
 74
     0
 49
-12.7
 74
     0
  0
LTYPE
  5
76
330
5
100
AcDbSymbolTableRecord
100
AcDbLinetypeTableRecord
  2
DOT
 70
     0
  3
Dot . . . . . . . . . . . . . . . . . . . . . . . .
 72
    65
 73
     2
 40
6.35
 49
0.0
 74
     0
 49
-6.35
 74
     0
  0
LTYPE
  5
77
330
5
100
AcDbSymbolTableRecord
100
AcDbLinetypeTableRecord
  2
DOT2
 70
     0
  3
Dot (.5x) ........................................
 72
    65
 73
     2
 40
3.175
 49
0.0
 74
     0
 49
-3.175
 74
     0
  0
LTYPE
  5
78
330
5
100
AcDbSymbolTableRecord
100
AcDbLinetypeTableRecord
  2
CENTERX2
 70
     0
  3
Center (2x) ________  __  ________  __  _____
 72
    65
 73
     4
 40
101.6
 49
63.5
 74
     0
 49
-12.7
 74
     0
 49
12.7
 74
     0
 49
-12.7
 74
     0
  0
LTYPE
  5
79
330
5
100
AcDbSymbolTableRecord
100
AcDbLinetypeTableRecord
  2
CENTER
 70
     0
  3
Center ____ _ ____ _ ____ _ ____ _ ____ _ ____
 72
    65
 73
     4
 40
50.8
 49
31.75
 74
     0
 49
-6.35
 74
     0
 49
6.35
 74
     0
 49
-6.35
 74
     0
  0
LTYPE
  5
7A
330
5
100
AcDbSymbolTableRecord
100
AcDbLinetypeTableRecord
  2
CENTER2
 70
     0
  3
Center (.5x) ___ _ ___ _ ___ _ ___ _ ___ _ ___
 72
    65
 73
     4
 40
28.575
 49
19.05
 74
     0
 49
-3.175
 74
     0
 49
3.175
 74
     0
 49
-3.175
 74
     0
  0
LTYPE
  5
7B
330
5
100
AcDbSymbolTableRecord
100
AcDbLinetypeTableRecord
  2
DASHDOTX2
 70
     0
  3
Dash dot (2x) ____  .  ____  .  ____  .  ___
 72
    65
 73
     4
 40
50.8
 49
25.4
 74
     0
 49
-12.7
 74
     0
 49
0.0
 74
     0
 49
-12.7
 74
     0
  0
LTYPE
  5
7C
330
5
100
AcDbSymbolTableRecord
100
AcDbLinetypeTableRecord
  2
DASHDOT
 70
     0
  3
Dash dot __ . __ . __ . __ . __ . __ . __ . __
 72
    65
 73
     4
 40
25.4
 49
12.7
 74
     0
 49
-6.35
 74
     0
 49
0.0
 74
     0
 49
-6.35
 74
     0
  0
LTYPE
  5
7D
330
5
100
AcDbSymbolTableRecord
100
AcDbLinetypeTableRecord
  2
DASHDOT2
 70
     0
  3
Dash dot (.5x) _._._._._._._._._._._._._._._.
 72
    65
 73
     4
 40
12.7
 49
6.35
 74
     0
 49
-3.175
 74
     0
 49
0.0
 74
     0
 49
-3.175
 74
     0
  0
LTYPE
  5
7E
330
5
100
AcDbSymbolTableRecord
100
AcDbLinetypeTableRecord
  2
DIVIDEX2
 70
     0
  3
Divide (2x) ________  .  .  ________  .  .  _
 72
    65
 73
     6
 40
63.5
 49
25.4
 74
     0
 49
-12.7
 74
     0
 49
0.0
 74
     0
 49
-12.7
 74
     0
 49
0.0
 74
     0
 49
-12.7
 74
     0
  0
LTYPE
  5
7F
330
5
100
AcDbSymbolTableRecord
100
AcDbLinetypeTableRecord
  2
DIVIDE
 70
     0
  3
Divide ____ . . ____ . . ____ . . ____ . . ____
 72
    65
 73
     6
 40
31.75
 49
12.7
 74
     0
 49
-6.35
 74
     0
 49
0.0
 74
     0
 49
-6.35
 74
     0
 49
0.0
 74
     0
 49
-6.35
 74
     0
  0
LTYPE
  5
80
330
5
100
AcDbSymbolTableRecord
100
AcDbLinetypeTableRecord
  2
DIVIDE2
 70
     0
  3
Divide (.5x) __..__..__..__..__..__..__..__.._
 72
    65
 73
     6
 40
15.875
 49
6.35
 74
     0
 49
-3.175
 74
     0
 49
0.0
 74
     0
 49
-3.175
 74
     0
 49
0.0
 74
     0
 49
-3.175
 74
     0
  0
LTYPE
  5
81
330
5
100
AcDbSymbolTableRecord
100
AcDbLinetypeTableRecord
  2
BORDERX2
 70
     0
  3
Border (2x) ____  ____  .  ____  ____  .  ___
 72
    65
 73
     6
 40
88.89999999999999
 49
25.4
 74
     0
 49
-12.7
 74
     0
 49
25.4
 74
     0
 49
-12.7
 74
     0
 49
0.0
 74
     0
 49
-12.7
 74
     0
  0
LTYPE
  5
82
330
5
100
AcDbSymbolTableRecord
100
AcDbLinetypeTableRecord
  2
BORDER
 70
     0
  3
Border __ __ . __ __ . __ __ . __ __ . __ __ .
 72
    65
 73
     6
 40
44.45
 49
12.7
 74
     0
 49
-6.35
 74
     0
 49
12.7
 74
     0
 49
-6.35
 74
     0
 49
0.0
 74
     0
 49
-6.35
 74
     0
  0
LTYPE
  5
83
330
5
100
AcDbSymbolTableRecord
100
AcDbLinetypeTableRecord
  2
BORDER2
 70
     0
  3
Border (.5x) __.__.__.__.__.__.__.__.__.__.__.
 72
    65
 73
     6
 40
22.225
 49
6.35
 74
     0
 49
-3.175
 74
     0
 49
6.35
 74
     0
 49
-3.175
 74
     0
 49
0.0
 74
     0
 49
-3.175
 74
     0
  0
LTYPE
  5
84
330
5
100
AcDbSymbolTableRecord
100
AcDbLinetypeTableRecord
  2
PHANTOMX2
 70
     0
  3
Phantom (2x) ____________    ____    ____   _
 72
    65
 73
     6
 40
127.0
 49
63.5
 74
     0
 49
-12.7
 74
     0
 49
12.7
 74
     0
 49
-12.7
 74
     0
 49
12.7
 74
     0
 49
-12.7
 74
     0
  0
LTYPE
  5
85
330
5
100
AcDbSymbolTableRecord
100
AcDbLinetypeTableRecord
  2
PHANTOM
 70
     0
  3
Phantom ______  __  __  ______  __  __  ______ 
 72
    65
 73
     6
 40
63.5
 49
31.75
 74
     0
 49
-6.35
 74
     0
 49
6.35
 74
     0
 49
-6.35
 74
     0
 49
6.35
 74
     0
 49
-6.35
 74
     0
  0
LTYPE
  5
86
330
5
100
AcDbSymbolTableRecord
100
AcDbLinetypeTableRecord
  2
PHANTOM2
 70
     0
  3
Phantom (.5x) ___ _ _ ___ _ _ ___ _ _ ___ _ _
 72
    65
 73
     6
 40
31.75
 49
15.875
 74
     0
 49
-3.175
 74
     0
 49
3.175
 74
     0
 49
-3.175
 74
     0
 49
3.175
 74
     0
 49
-3.175
 74
     0
  0
LTYPE
  5
87
330
5
100
AcDbSymbolTableRecord
100
AcDbLinetypeTableRecord
  2
ACAD_ISO06W100
 70
     0
  3
ISO long-dash triple-dot ____ ... ____ ... ____
 72
    65
 73
     8
 40
36.0
 49
24.0
 74
     0
 49
-3.0
 74
     0
 49
0.0
 74
     0
 49
-3.0
 74
     0
 49
0.0
 74
     0
 49
-3.0
 74
     0
 49
0.0
 74
     0
 49
-3.0
 74
     0
  0
LTYPE
  5
88
330
5
100
AcDbSymbolTableRecord
100
AcDbLinetypeTableRecord
  2
ACAD_ISO13W100
 70
     0
  3
ISO double-dash double-dot __ __ . . __ __ . . _
 72
    65
 73
     8
 40
36.0
 49
12.0
 74
     0
 49
-3.0
 74
     0
 49
12.0
 74
     0
 49
-3.0
 74
     0
 49
0.0
 74
     0
 49
-3.0
 74
     0
 49
0.0
 74
     0
 49
-3.0
 74
     0
  0
LTYPE
  5
89
330
5
100
AcDbSymbolTableRecord
100
AcDbLinetypeTableRecord
  2
ACAD_ISO14W100
 70
     0
  3
ISO dash triple-dot __ . . . __ . . . __ . . . _
 72
    65
 73
     8
 40
24.0
 49
12.0
 74
     0
 49
-3.0
 74
     0
 49
0.0
 74
     0
 49
-3.0
 74
     0
 49
0.0
 74
     0
 49
-3.0
 74
     0
 49
0.0
 74
     0
 49
-3.0
 74
     0
  0
LTYPE
  5
8A
330
5
100
AcDbSymbolTableRecord
100
AcDbLinetypeTableRecord
  2
ACAD_ISO02W100
 70
     0
  3
ISO dash __ __ __ __ __ __ __ __ __ __ __ __ __
 72
    65
 73
     2
 40
15.0
 49
12.0
 74
     0
 49
-3.0
 74
     0
  0
LTYPE
  5
8B
330
5
100
AcDbSymbolTableRecord
100
AcDbLinetypeTableRecord
  2
ACAD_ISO03W100
 70
     0
  3
ISO dash space __    __    __    __    __    __
 72
    65
 73
     2
 40
30.0
 49
12.0
 74
     0
 49
-18.0
 74
     0
  0
LTYPE
  5
8C
330
5
100
AcDbSymbolTableRecord
100
AcDbLinetypeTableRecord
  2
ACAD_ISO04W100
 70
     0
  3
ISO long-dash dot ____ . ____ . ____ . ____ . _
 72
    65
 73
     4
 40
30.0
 49
24.0
 74
     0
 49
-3.0
 74
     0
 49
0.0
 74
     0
 49
-3.0
 74
     0
  0
LTYPE
  5
8D
330
5
100
AcDbSymbolTableRecord
100
AcDbLinetypeTableRecord
  2
ACAD_ISO05W100
 70
     0
  3
ISO long-dash double-dot ____ .. ____ .. ____ . 
 72
    65
 73
     6
 40
33.0
 49
24.0
 74
     0
 49
-3.0
 74
     0
 49
0.0
 74
     0
 49
-3.0
 74
     0
 49
0.0
 74
     0
 49
-3.0
 74
     0
  0
LTYPE
  5
8E
330
5
100
AcDbSymbolTableRecord
100
AcDbLinetypeTableRecord
  2
ACAD_ISO07W100
 70
     0
  3
ISO dot . . . . . . . . . . . . . . . . . . . . 
 72
    65
 73
     2
 40
3.0
 49
0.0
 74
     0
 49
-3.0
 74
     0
  0
LTYPE
  5
8F
330
5
100
AcDbSymbolTableRecord
100
AcDbLinetypeTableRecord
  2
ACAD_ISO08W100
 70
     0
  3
ISO long-dash short-dash ____ __ ____ __ ____ _
 72
    65
 73
     4
 40
36.0
 49
24.0
 74
     0
 49
-3.0
 74
     0
 49
6.0
 74
     0
 49
-3.0
 74
     0
  0
LTYPE
  5
90
330
5
100
AcDbSymbolTableRecord
100
AcDbLinetypeTableRecord
  2
ACAD_ISO09W100
 70
     0
  3
ISO long-dash double-short-dash ____ __ __ ____
 72
    65
 73
     6
 40
45.0
 49
24.0
 74
     0
 49
-3.0
 74
     0
 49
6.0
 74
     0
 49
-3.0
 74
     0
 49
6.0
 74
     0
 49
-3.0
 74
     0
  0
LTYPE
  5
91
330
5
100
AcDbSymbolTableRecord
100
AcDbLinetypeTableRecord
  2
ACAD_ISO10W100
 70
     0
  3
ISO dash dot __ . __ . __ . __ . __ . __ . __ . 
 72
    65
 73
     4
 40
18.0
 49
12.0
 74
     0
 49
-3.0
 74
     0
 49
0.0
 74
     0
 49
-3.0
 74
     0
  0
LTYPE
  5
92
330
5
100
AcDbSymbolTableRecord
100
AcDbLinetypeTableRecord
  2
ACAD_ISO11W100
 70
     0
  3
ISO double-dash dot __ __ . __ __ . __ __ . __ _
 72
    65
 73
     6
 40
33.0
 49
12.0
 74
     0
 49
-3.0
 74
     0
 49
12.0
 74
     0
 49
-3.0
 74
     0
 49
0.0
 74
     0
 49
-3.0
 74
     0
  0
LTYPE
  5
93
330
5
100
AcDbSymbolTableRecord
100
AcDbLinetypeTableRecord
  2
ACAD_ISO12W100
 70
     0
  3
ISO dash double-dot __ . . __ . . __ . . __ . . 
 72
    65
 73
     6
 40
21.0
 49
12.0
 74
     0
 49
-3.0
 74
     0
 49
0.0
 74
     0
 49
-3.0
 74
     0
 49
0.0
 74
     0
 49
-3.0
 74
     0
  0
LTYPE
  5
94
330
5
100
AcDbSymbolTableRecord
100
AcDbLinetypeTableRecord
  2
ACAD_ISO15W100
 70
     0
  3
ISO double-dash triple-dot __ __ . . . __ __ . .
 72
    65
 73
    10
 40
39.0
 49
12.0
 74
     0
 49
-3.0
 74
     0
 49
12.0
 74
     0
 49
-3.0
 74
     0
 49
0.0
 74
     0
 49
-3.0
 74
     0
 49
0.0
 74
     0
 49
-3.0
 74
     0
 49
0.0
 74
     0
 49
-3.0
 74
     0
  0
LTYPE
  5
95
330
5
100
AcDbSymbolTableRecord
100
AcDbLinetypeTableRecord
  2
JIS_02_0.7
 70
     0
  3
HIDDEN0.75 _ _ _ _ _ _ _ _ _ _ _ _ _ _ _ _ _ 
 72
    65
 73
     2
 40
1.35
 49
0.75
 74
     0
 49
-0.6
 74
     0
  0
LTYPE
  5
96
330
5
100
AcDbSymbolTableRecord
100
AcDbLinetypeTableRecord
  2
JIS_02_1.0
 70
     0
  3
HIDDEN01 _ _ _ _ _ _ _ _ _ _ _ _ _ _ _ _ _ 
 72
    65
 73
     2
 40
2.0
 49
1.0
 74
     0
 49
-1.0
 74
     0
  0
LTYPE
  5
97
330
5
100
AcDbSymbolTableRecord
100
AcDbLinetypeTableRecord
  2
JIS_02_1.2
 70
     0
  3
HIDDEN01.25  _ _ _ _ _ _ _ _ _ _ _ _ _ _ _ _ _ 
 72
    65
 73
     2
 40
2.5
 49
1.25
 74
     0
 49
-1.25
 74
     0
  0
LTYPE
  5
98
330
5
100
AcDbSymbolTableRecord
100
AcDbLinetypeTableRecord
  2
JIS_02_2.0
 70
     0
  3
HIDDEN02 __ __ __ __ __ __ __ __ __ __ __ 
 72
    65
 73
     2
 40
3.0
 49
2.0
 74
     0
 49
-1.0
 74
     0
  0
LTYPE
  5
99
330
5
100
AcDbSymbolTableRecord
100
AcDbLinetypeTableRecord
  2
JIS_02_4.0
 70
     0
  3
HIDDEN04 ____ ____ ____ ____ ____ ____ ____ 
 72
    65
 73
     2
 40
5.5
 49
4.0
 74
     0
 49
-1.5
 74
     0
  0
LTYPE
  5
9A
330
5
100
AcDbSymbolTableRecord
100
AcDbLinetypeTableRecord
  2
JIS_08_11
 70
     0
  3
1SASEN11 ___ _ ___ _ ___ _ ___ _ ___ _ ___
 72
    65
 73
     4
 40
12.8
 49
11.0
 74
     0
 49
-0.6
 74
     0
 49
0.6
 74
     0
 49
-0.6
 74
     0
  0
LTYPE
  5
9B
330
5
100
AcDbSymbolTableRecord
100
AcDbLinetypeTableRecord
  2
JIS_08_15
 70
     0
  3
1SASEN15 ____ _ ____ _ ____ _ ____ _ ____ 
 72
    65
 73
     4
 40
17.25
 49
15.0
 74
     0
 49
-0.75
 74
     0
 49
0.75
 74
     0
 49
-0.75
 74
     0
  0
LTYPE
  5
9C
330
5
100
AcDbSymbolTableRecord
100
AcDbLinetypeTableRecord
  2
JIS_08_25
 70
     0
  3
1SASEN25 ________  __  ________  __  _____
 72
    65
 73
     4
 40
28.0
 49
25.0
 74
     0
 49
-1.125
 74
     0
 49
0.75
 74
     0
 49
-1.125
 74
     0
  0
LTYPE
  5
9D
330
5
100
AcDbSymbolTableRecord
100
AcDbLinetypeTableRecord
  2
JIS_08_37
 70
     0
  3
1SASEN37 ________  __  ________  __  _____
 72
    65
 73
     4
 40
40.5
 49
37.5
 74
     0
 49
-1.125
 74
     0
 49
0.75
 74
     0
 49
-1.125
 74
     0
  0
LTYPE
  5
9E
330
5
100
AcDbSymbolTableRecord
100
AcDbLinetypeTableRecord
  2
JIS_08_50
 70
     0
  3
1SASEN50 _______________  __  ____________
 72
    65
 73
     4
 40
53.0
 49
50.0
 74
     0
 49
-1.125
 74
     0
 49
0.75
 74
     0
 49
-1.125
 74
     0
  0
LTYPE
  5
9F
330
5
100
AcDbSymbolTableRecord
100
AcDbLinetypeTableRecord
  2
JIS_09_08
 70
     0
  3
2SASEN8 __ _ _ __ _ _ __ _ _ __ _ _ __ _ _ 
 72
    65
 73
     6
 40
10.75
 49
8.0
 74
     0
 49
-0.55
 74
     0
 49
0.55
 74
     0
 49
-0.55
 74
     0
 49
0.55
 74
     0
 49
-0.55
 74
     0
  0
LTYPE
  5
A0
330
5
100
AcDbSymbolTableRecord
100
AcDbLinetypeTableRecord
  2
JIS_09_15
 70
     0
  3
2SASEN15 ___ _ _ ___ _ _ ___ _ _ ___ _ _ ___ 
 72
    65
 73
     6
 40
18.9
 49
15.0
 74
     0
 49
-0.9
 74
     0
 49
0.6
 74
     0
 49
-0.9
 74
     0
 49
0.6
 74
     0
 49
-0.9
 74
     0
  0
LTYPE
  5
A1
330
5
100
AcDbSymbolTableRecord
100
AcDbLinetypeTableRecord
  2
JIS_09_29
 70
     0
  3
2SASEN29 ______　__  __  ______　__  __  ___
 72
    65
 73
     6
 40
34.0
 49
29.0
 74
     0
 49
-1.2
 74
     0
 49
0.7
 74
     0
 49
-1.2
 74
     0
 49
0.7
 74
     0
 49
-1.2
 74
     0
  0
LTYPE
  5
A2
330
5
100
AcDbSymbolTableRecord
100
AcDbLinetypeTableRecord
  2
JIS_09_50
 70
     0
  3
2SASEN50 ____________　__  __  _____________
 72
    65
 73
     6
 40
55.0
 49
50.0
 74
     0
 49
-1.2
 74
     0
 49
0.7
 74
     0
 49
-1.2
 74
     0
 49
0.7
 74
     0
 49
-1.2
 74
     0
  0
LTYPE
  5
A3
330
5
100
AcDbSymbolTableRecord
100
AcDbLinetypeTableRecord
  2
SXF_破線
 70
     0
  3
02 dashed -- -- -- -- -- --
 72
    65
 73
     2
 40
7.5
 49
6.0
 74
     0
 49
-1.5
 74
     0
  0
LTYPE
  5
A4
330
5
100
AcDbSymbolTableRecord
100
AcDbLinetypeTableRecord
  2
SXF_跳び破線
 70
     0
  3
03 dashed_spaced --  --  --  --
 72
    65
 73
     2
 40
12.0
 49
6.0
 74
     0
 49
-6.0
 74
     0
  0
LTYPE
  5
A5
330
5
100
AcDbSymbolTableRecord
100
AcDbLinetypeTableRecord
  2
SXF_一点長鎖線
 70
     0
  3
04 long_dashed_dotted ---- . ---- . ----
 72
    65
 73
     4
 40
15.25
 49
12.0
 74
     0
 49
-1.5
 74
     0
 49
0.25
 74
     0
 49
-1.5
 74
     0
  0
LTYPE
  5
A6
330
5
100
AcDbSymbolTableRecord
100
AcDbLinetypeTableRecord
  2
SXF_二点長鎖線
 70
     0
  3
05 long_dashed_double-dotted ---- . . ---- 
 72
    65
 73
     6
 40
17.0
 49
12.0
 74
     0
 49
-1.5
 74
     0
 49
0.25
 74
     0
 49
-1.5
 74
     0
 49
0.25
 74
     0
 49
-1.5
 74
     0
  0
LTYPE
  5
A7
330
5
100
AcDbSymbolTableRecord
100
AcDbLinetypeTableRecord
  2
SXF_三点長鎖線
 70
     0
  3
06 long_dashed_triplicate-dotted ---- ... ---- 
 72
    65
 73
     8
 40
18.75
 49
12.0
 74
     0
 49
-1.5
 74
     0
 49
0.25
 74
     0
 49
-1.5
 74
     0
 49
0.25
 74
     0
 49
-1.5
 74
     0
 49
0.25
 74
     0
 49
-1.5
 74
     0
  0
LTYPE
  5
A8
330
5
100
AcDbSymbolTableRecord
100
AcDbLinetypeTableRecord
  2
SXF_点線
 70
     0
  3
07 dotted . . . . . . . . . . . . 
 72
    65
 73
     2
 40
1.75
 49
0.25
 74
     0
 49
-1.5
 74
     0
  0
LTYPE
  5
A9
330
5
100
AcDbSymbolTableRecord
100
AcDbLinetypeTableRecord
  2
SXF_一点鎖線
 70
     0
  3
08 chain ---- - --- - --- - ---
 72
    65
 73
     4
 40
18.5
 49
12.0
 74
     0
 49
-1.5
 74
     0
 49
3.5
 74
     0
 49
-1.5
 74
     0
  0
LTYPE
  5
AA
330
5
100
AcDbSymbolTableRecord
100
AcDbLinetypeTableRecord
  2
SXF_二点鎖線
 70
     0
  3
09 chain_double_dash ---- - - ---- - - ----
 72
    65
 73
     6
 40
23.5
 49
12.0
 74
     0
 49
-1.5
 74
     0
 49
3.5
 74
     0
 49
-1.5
 74
     0
 49
3.5
 74
     0
 49
-1.5
 74
     0
  0
LTYPE
  5
AB
330
5
100
AcDbSymbolTableRecord
100
AcDbLinetypeTableRecord
  2
SXF_一点短鎖線
 70
     0
  3
10 dashed_dotted -- . -- . -- . --
 72
    65
 73
     4
 40
9.25
 49
6.0
 74
     0
 49
-1.5
 74
     0
 49
0.25
 74
     0
 49
-1.5
 74
     0
  0
LTYPE
  5
AC
330
5
100
AcDbSymbolTableRecord
100
AcDbLinetypeTableRecord
  2
SXF_一点二短鎖線
 70
     0
  3
11 double-dashed_dotted -- -- . -- --
 72
    65
 73
     6
 40
16.75
 49
6.0
 74
     0
 49
-1.5
 74
     0
 49
6.0
 74
     0
 49
-1.5
 74
     0
 49
0.25
 74
     0
 49
-1.5
 74
     0
  0
LTYPE
  5
AD
330
5
100
AcDbSymbolTableRecord
100
AcDbLinetypeTableRecord
  2
SXF_二点短鎖線
 70
     0
  3
12 dashed_double_dotted -- . . -- . . --
 72
    65
 73
     6
 40
11.0
 49
6.0
 74
     0
 49
-1.5
 74
     0
 49
0.25
 74
     0
 49
-1.5
 74
     0
 49
0.25
 74
     0
 49
-1.5
 74
     0
  0
LTYPE
  5
AE
330
5
100
AcDbSymbolTableRecord
100
AcDbLinetypeTableRecord
  2
SXF_二点二短鎖線
 70
     0
  3
13 double-dashed_double-dotted -- -- . . -- --
 72
    65
 73
     8
 40
18.5
 49
6.0
 74
     0
 49
-1.5
 74
     0
 49
6.0
 74
     0
 49
-1.5
 74
     0
 49
0.25
 74
     0
 49
-1.5
 74
     0
 49
0.25
 74
     0
 49
-1.5
 74
     0
  0
LTYPE
  5
AF
330
5
100
AcDbSymbolTableRecord
100
AcDbLinetypeTableRecord
  2
SXF_三点短鎖線
 70
     0
  3
14 dashed triplicate-dotted -- . . . -- . . . --
 72
    65
 73
     8
 40
12.75
 49
6.0
 74
     0
 49
-1.5
 74
     0
 49
0.25
 74
     0
 49
-1.5
 74
     0
 49
0.25
 74
     0
 49
-1.5
 74
     0
 49
0.25
 74
     0
 49
-1.5
 74
     0
  0
LTYPE
  5
B0
330
5
100
AcDbSymbolTableRecord
100
AcDbLinetypeTableRecord
  2
SXF_三点二短鎖線
 70
     0
  3
15 double-dashed triplicate-dotted -- -- . . . -- -- 
 72
    65
 73
    10
 40
20.25
 49
6.0
 74
     0
 49
-1.5
 74
     0
 49
6.0
 74
     0
 49
-1.5
 74
     0
 49
0.25
 74
     0
 49
-1.5
 74
     0
 49
0.25
 74
     0
 49
-1.5
 74
     0
 49
0.25
 74
     0
 49
-1.5
 74
     0
  0
ENDTAB
  0
TABLE
  2
LAYER
  5
2
330
0
100
AcDbSymbolTable
 70
     4
  0
LAYER
  5
10
330
2
100
AcDbSymbolTableRecord
100
AcDbLayerTableRecord
  2
0
 70
     0
 62
     7
  6
Continuous
370
    -3
390
F
347
46
  0
LAYER
  5
B1
330
2
100
AcDbSymbolTableRecord
100
AcDbLayerTableRecord
  2
DEFAULT_1
 70
     0
 62
     7
  6
Continuous
370
    -3
390
F
347
46
  0
LAYER
  5
B2
330
2
100
AcDbSymbolTableRecord
100
AcDbLayerTableRecord
  2
DEFAULT_3
 70
     0
 62
     7
  6
Continuous
370
    -3
390
F
347
46
  0
LAYER
  5
B3
330
2
100
AcDbSymbolTableRecord
100
AcDbLayerTableRecord
  2
Layer0015
 70
     0
 62
     7
  6
Continuous
370
    -3
390
F
347
46
  0
ENDTAB
  0
TABLE
  2
STYLE
  5
3
330
0
100
AcDbSymbolTable
 70
     2
  0
STYLE
  5
11
330
3
100
AcDbSymbolTableRecord
100
AcDbTextStyleTableRecord
  2
Standard
 70
     0
 40
0.0
 41
1.0
 50
0.0
 71
     0
 42
0.2
  3
txt.shx
  4
extfont2.shx
  0
STYLE
  5
31F
330
3
100
AcDbSymbolTableRecord
100
AcDbTextStyleTableRecord
  2
dcStyle0
 70
     0
 40
0.0
 41
1.0
 50
0.0
 71
     0
 42
0.2
  3
txt.shx
  4
extfont2
  0
ENDTAB
  0
TABLE
  2
VIEW
  5
6
330
0
100
AcDbSymbolTable
 70
     0
  0
ENDTAB
  0
TABLE
  2
UCS
  5
7
330
0
100
AcDbSymbolTable
 70
     0
  0
ENDTAB
  0
TABLE
  2
APPID
  5
9
330
0
100
AcDbSymbolTable
 70
     2
  0
APPID
  5
12
330
9
100
AcDbSymbolTableRecord
100
AcDbRegAppTableRecord
  2
ACAD
 70
     0
  0
APPID
  5
6E
330
9
100
AcDbSymbolTableRecord
100
AcDbRegAppTableRecord
  2
DaFusionOut
 70
     0
  0
ENDTAB
  0
TABLE
  2
DIMSTYLE
  5
A
330
0
100
AcDbSymbolTable
 70
     1
100
AcDbDimStyleTable
  0
DIMSTYLE
105
27
330
A
100
AcDbSymbolTableRecord
100
AcDbDimStyleTableRecord
  2
Standard
 70
     0
178
     0
340
11
  0
ENDTAB
  0
TABLE
  2
BLOCK_RECORD
  5
1
330
0
100
AcDbSymbolTable
 70
    15
  0
BLOCK_RECORD
  5
1F
330
1
100
AcDbSymbolTableRecord
100
AcDbBlockTableRecord
  2
*Model_Space
340
22
 70
     0
280
     1
281
     0
  0
BLOCK_RECORD
  5
1B
330
1
100
AcDbSymbolTableRecord
100
AcDbBlockTableRecord
  2
*Paper_Space
340
1E
 70
     0
280
     1
281
     0
  0
BLOCK_RECORD
  5
23
330
1
100
AcDbSymbolTableRecord
100
AcDbBlockTableRecord
  2
*Paper_Space0
340
26
 70
     0
280
     1
281
     0
  0
BLOCK_RECORD
  5
B5
330
1
100
AcDbSymbolTableRecord
100
AcDbBlockTableRecord
  2
DC_GROUP_AM30014_1
340
0
102
{BLKREFS
331
3EA
102
}
 70
     0
280
     1
281
     0
  0
BLOCK_RECORD
  5
B8
330
1
100
AcDbSymbolTableRecord
100
AcDbBlockTableRecord
  2
DC_GROUP_AM30014_2
340
0
102
{BLKREFS
331
3EB
102
}
 70
     0
280
     1
281
     0
  0
BLOCK_RECORD
  5
BB
330
1
100
AcDbSymbolTableRecord
100
AcDbBlockTableRecord
  2
DC_GROUP_AM30014_3
340
0
102
{BLKREFS
331
3EC
102
}
 70
     0
280
     1
281
     0
  0
BLOCK_RECORD
  5
BE
330
1
100
AcDbSymbolTableRecord
100
AcDbBlockTableRecord
  2
DC_GROUP_AM30014_4
340
0
102
{BLKREFS
331
3ED
102
}
 70
     0
280
     1
281
     0
  0
BLOCK_RECORD
  5
C1
330
1
100
AcDbSymbolTableRecord
100
AcDbBlockTableRecord
  2
DC_GROUP_AM30014_5
340
0
102
{BLKREFS
331
3EE
102
}
 70
     0
280
     1
281
     0
  0
BLOCK_RECORD
  5
C4
330
1
100
AcDbSymbolTableRecord
100
AcDbBlockTableRecord
  2
DC_GROUP_AM30014_6
340
0
102
{BLKREFS
331
3EF
102
}
 70
     0
280
     1
281
     0
  0
BLOCK_RECORD
  5
C7
330
1
100
AcDbSymbolTableRecord
100
AcDbBlockTableRecord
  2
DC_GROUP_AM30014_7
340
0
102
{BLKREFS
331
3F0
102
}
 70
     0
280
     1
281
     0
  0
BLOCK_RECORD
  5
CA
330
1
100
AcDbSymbolTableRecord
100
AcDbBlockTableRecord
  2
DC_GROUP_AM30014_8
340
0
102
{BLKREFS
331
3F1
102
}
 70
     0
280
     1
281
     0
  0
BLOCK_RECORD
  5
CD
330
1
100
AcDbSymbolTableRecord
100
AcDbBlockTableRecord
  2
DC_GROUP_AM30014_9
340
0
102
{BLKREFS
331
3F2
102
}
 70
     0
280
     1
281
     0
  0
BLOCK_RECORD
  5
D0
330
1
100
AcDbSymbolTableRecord
100
AcDbBlockTableRecord
  2
DC_GROUP_AM30014_10
340
0
102
{BLKREFS
331
3F3
102
}
 70
     0
280
     1
281
     0
  0
BLOCK_RECORD
  5
D3
330
1
100
AcDbSymbolTableRecord
100
AcDbBlockTableRecord
  2
DC_GROUP_AM30014_11
340
0
102
{BLKREFS
331
3F4
102
}
 70
     0
280
     1
281
     0
  0
BLOCK_RECORD
  5
D6
330
1
100
AcDbSymbolTableRecord
100
AcDbBlockTableRecord
  2
DC_GROUP_AM30014_12
340
0
102
{BLKREFS
331
3F5
102
}
 70
     0
280
     1
281
     0
  0
BLOCK_RECORD
  5
D9
330
1
100
AcDbSymbolTableRecord
100
AcDbBlockTableRecord
  2
DC_GROUP_AM30014_13
340
0
102
{BLKREFS
331
3F6
102
}
 70
     0
280
     1
281
     0
  0
BLOCK_RECORD
  5
DC
330
1
100
AcDbSymbolTableRecord
100
AcDbBlockTableRecord
  2
DC_GROUP_AM30014_14
340
0
102
{BLKREFS
331
3F7
102
}
 70
     0
280
     1
281
     0
  0
ENDTAB
  0
ENDSEC
  0
SECTION
  2
BLOCKS
  0
BLOCK
  5
20
330
1F
100
AcDbEntity
  8
0
100
AcDbBlockBegin
  2
*Model_Space
 70
     0
 10
0.0
 20
0.0
 30
0.0
  3
*Model_Space
  1

  0
ENDBLK
  5
21
330
1F
100
AcDbEntity
  8
0
100
AcDbBlockEnd
  0
BLOCK
  5
1C
330
1B
100
AcDbEntity
 67
     1
  8
0
100
AcDbBlockBegin
  2
*Paper_Space
 70
     0
 10
0.0
 20
0.0
 30
0.0
  3
*Paper_Space
  1

  0
ENDBLK
  5
1D
330
1B
100
AcDbEntity
 67
     1
  8
0
100
AcDbBlockEnd
  0
BLOCK
  5
24
330
23
100
AcDbEntity
  8
0
100
AcDbBlockBegin
  2
*Paper_Space0
 70
     0
 10
0.0
 20
0.0
 30
0.0
  3
*Paper_Space0
  1

  0
ENDBLK
  5
25
330
23
100
AcDbEntity
  8
0
100
AcDbBlockEnd
  0
BLOCK
  5
B6
330
B5
100
AcDbEntity
  8
0
100
AcDbBlockBegin
  2
DC_GROUP_AM30014_1
 70
     0
 10
0.0
 20
0.0
 30
0.0
  3
DC_GROUP_AM30014_1
  1

  0
LINE
  5
DF
330
B5
100
AcDbEntity
  8
0
  6
Continuous
 62
     7
370
    25
100
AcDbLine
 10
-20.60905693708207
 20
74.95947117175174
 30
0.0
 11
14.39094306291793
 21
74.95947117175174
 31
0.0
  0
ENDBLK
  5
B7
330
B5
100
AcDbEntity
  8
0
100
AcDbBlockEnd
  0
BLOCK
  5
B9
330
B8
100
AcDbEntity
  8
0
100
AcDbBlockBegin
  2
DC_GROUP_AM30014_2
 70
     0
 10
0.0
 20
0.0
 30
0.0
  3
DC_GROUP_AM30014_2
  1

  0
LINE
  5
E0
330
B8
100
AcDbEntity
  8
0
  6
Continuous
 62
     7
370
    25
100
AcDbLine
 10
-20.60905693708207
 20
74.95947117175174
 30
0.0
 11
-20.60905693708207
 21
71.95947117175174
 31
0.0
  0
ENDBLK
  5
BA
330
B8
100
AcDbEntity
  8
0
100
AcDbBlockEnd
  0
BLOCK
  5
BC
330
BB
100
AcDbEntity
  8
0
100
AcDbBlockBegin
  2
DC_GROUP_AM30014_3
 70
     0
 10
0.0
 20
0.0
 30
0.0
  3
DC_GROUP_AM30014_3
  1

  0
LINE
  5
E1
330
BB
100
AcDbEntity
  8
0
  6
Continuous
 62
     7
370
    25
100
AcDbLine
 10
-67.82137492974209
 20
110.1450868404517
 30
0.0
 11
-67.80389876708216
 21
110.1559836919116
 31
0.0
  0
LINE
  5
E2
330
BB
100
AcDbEntity
  8
0
  6
Continuous
 62
     7
370
    25
100
AcDbLine
 10
-67.80389876708216
 20
110.1559836919116
 30
0.0
 11
-67.78682564908218
 21
110.1675570291917
 31
0.0
  0
LINE
  5
E3
330
BB
100
AcDbEntity
  8
0
  6
Continuous
 62
     7
370
    25
100
AcDbLine
 10
-67.78682564908218
 20
110.1675570291917
 30
0.0
 11
-67.77019467396224
 21
110.1797921380717
 31
0.0
  0
LINE
  5
E4
330
BB
100
AcDbEntity
  8
0
  6
Continuous
 62
     7
370
    25
100
AcDbLine
 10
-67.77019467396224
 20
110.1797921380717
 30
0.0
 11
-67.75404495264218
 21
110.1926742967118
 31
0.0
  0
LINE
  5
E5
330
BB
100
AcDbEntity
  8
0
  6
Continuous
 62
     7
370
    25
100
AcDbLine
 10
-67.75404495264218
 20
110.1926742967118
 30
0.0
 11
-67.73841558842219
 21
110.2061887883516
 31
0.0
  0
LINE
  5
E6
330
BB
100
AcDbEntity
  8
0
  6
Continuous
 62
     7
370
    25
100
AcDbLine
 10
-67.73841558842219
 20
110.2061887883516
 30
0.0
 11
-67.72334568206213
 21
110.2203208962317
 31
0.0
  0
LINE
  5
E7
330
BB
100
AcDbEntity
  8
0
  6
Continuous
 62
     7
370
    25
100
AcDbLine
 10
-67.72334568206213
 20
110.2203208962317
 30
0.0
 11
-67.70887434448218
 21
110.2350559035918
 31
0.0
  0
LINE
  5
E8
330
BB
100
AcDbEntity
  8
0
  6
Continuous
 62
     7
370
    25
100
AcDbLine
 10
-67.70887434448218
 20
110.2350559035918
 30
0.0
 11
-67.69503606380215
 21
110.2503763555517
 31
0.0
  0
LINE
  5
E9
330
BB
100
AcDbEntity
  8
0
  6
Continuous
 62
     7
370
    25
100
AcDbLine
 10
-67.69503606380215
 20
110.2503763555517
 30
0.0
 11
-67.68184163502212
 21
110.2662507561116
 31
0.0
  0
LINE
  5
EA
330
BB
100
AcDbEntity
  8
0
  6
Continuous
 62
     7
370
    25
100
AcDbLine
 10
-67.68184163502212
 20
110.2662507561116
 30
0.0
 11
-67.6692942610822
 21
110.2826431007717
 31
0.0
  0
LINE
  5
EB
330
BB
100
AcDbEntity
  8
0
  6
Continuous
 62
     7
370
    25
100
AcDbLine
 10
-67.6692942610822
 20
110.2826431007717
 30
0.0
 11
-67.65739714492213
 21
110.2995173951917
 31
0.0
  0
LINE
  5
EC
330
BB
100
AcDbEntity
  8
0
  6
Continuous
 62
     7
370
    25
100
AcDbLine
 10
-67.65739714492213
 20
110.2995173951917
 30
0.0
 11
-67.64615348694213
 21
110.3168376323316
 31
0.0
  0
LINE
  5
ED
330
BB
100
AcDbEntity
  8
0
  6
Continuous
 62
     7
370
    25
100
AcDbLine
 10
-67.64615348694213
 20
110.3168376323316
 30
0.0
 11
-67.63556648500219
 21
110.3345678127717
 31
0.0
  0
LINE
  5
EE
330
BB
100
AcDbEntity
  8
0
  6
Continuous
 62
     7
370
    25
100
AcDbLine
 10
-67.63556648500219
 20
110.3345678127717
 30
0.0
 11
-67.62563934458205
 21
110.3526719345518
 31
0.0
  0
LINE
  5
EF
330
BB
100
AcDbEntity
  8
0
  6
Continuous
 62
     7
370
    25
100
AcDbLine
 10
-67.62563934458205
 20
110.3526719345518
 30
0.0
 11
-67.6163748876221
 21
110.3711142217717
 31
0.0
  0
LINE
  5
F0
330
BB
100
AcDbEntity
  8
0
  6
Continuous
 62
     7
370
    25
100
AcDbLine
 10
-67.6163748876221
 20
110.3711142217717
 30
0.0
 11
-67.60776799856217
 21
110.3898635899117
 31
0.0
  0
LINE
  5
F1
330
BB
100
AcDbEntity
  8
0
  6
Continuous
 62
     7
370
    25
100
AcDbLine
 10
-67.60776799856217
 20
110.3898635899117
 30
0.0
 11
-67.5998059672421
 21
110.4088934527918
 31
0.0
  0
LINE
  5
F2
330
BB
100
AcDbEntity
  8
0
  6
Continuous
 62
     7
370
    25
100
AcDbLine
 10
-67.5998059672421
 20
110.4088934527918
 30
0.0
 11
-67.59247577870212
 21
110.4281774045716
 31
0.0
  0
LINE
  5
F3
330
BB
100
AcDbEntity
  8
0
  6
Continuous
 62
     7
370
    25
100
AcDbLine
 10
-67.59247577870212
 20
110.4281774045716
 30
0.0
 11
-67.5857644179822
 21
110.4476890343317
 31
0.0
  0
LINE
  5
F4
330
BB
100
AcDbEntity
  8
0
  6
Continuous
 62
     7
370
    25
100
AcDbLine
 10
-67.5857644179822
 20
110.4476890343317
 30
0.0
 11
-67.57965887266221
 21
110.4674019387717
 31
0.0
  0
LINE
  5
F5
330
BB
100
AcDbEntity
  8
0
  6
Continuous
 62
     7
370
    25
100
AcDbLine
 10
-67.57965887266221
 20
110.4674019387717
 30
0.0
 11
-67.57414613032222
 21
110.4872897044317
 31
0.0
  0
LINE
  5
F6
330
BB
100
AcDbEntity
  8
0
  6
Continuous
 62
     7
370
    25
100
AcDbLine
 10
-67.57414613032222
 20
110.4872897044317
 30
0.0
 11
-67.56921317346212
 21
110.5073259305517
 31
0.0
  0
LINE
  5
F7
330
BB
100
AcDbEntity
  8
0
  6
Continuous
 62
     7
370
    25
100
AcDbLine
 10
-67.56921317346212
 20
110.5073259305517
 30
0.0
 11
-67.56484694140215
 21
110.5274843103518
 31
0.0
  0
LINE
  5
F8
330
BB
100
AcDbEntity
  8
0
  6
Continuous
 62
     7
370
    25
100
AcDbLine
 10
-67.56484694140215
 20
110.5274843103518
 30
0.0
 11
-67.56103205952218
 21
110.5477439523317
 31
0.0
  0
LINE
  5
F9
330
BB
100
AcDbEntity
  8
0
  6
Continuous
 62
     7
370
    25
100
AcDbLine
 10
-67.56103205952218
 20
110.5477439523317
 30
0.0
 11
-67.55774981818217
 21
110.5680917399317
 31
0.0
  0
LINE
  5
FA
330
BB
100
AcDbEntity
  8
0
  6
Continuous
 62
     7
370
    25
100
AcDbLine
 10
-67.55774981818217
 20
110.5680917399317
 30
0.0
 11
-67.5549812486621
 21
110.5885151636517
 31
0.0
  0
LINE
  5
FB
330
BB
100
AcDbEntity
  8
0
  6
Continuous
 62
     7
370
    25
100
AcDbLine
 10
-67.5549812486621
 20
110.5885151636517
 30
0.0
 11
-67.55270737970216
 21
110.6090017165317
 31
0.0
  0
LINE
  5
FC
330
BB
100
AcDbEntity
  8
0
  6
Continuous
 62
     7
370
    25
100
AcDbLine
 10
-67.55270737970216
 20
110.6090017165317
 30
0.0
 11
-67.55090924258218
 21
110.6295388865316
 31
0.0
  0
LINE
  5
FD
330
BB
100
AcDbEntity
  8
0
  6
Continuous
 62
     7
370
    25
100
AcDbLine
 10
-67.55090924258218
 20
110.6295388865316
 30
0.0
 11
-67.54956786858213
 21
110.6501141666917
 31
0.0
  0
LINE
  5
FE
330
BB
100
AcDbEntity
  8
0
  6
Continuous
 62
     7
370
    25
100
AcDbLine
 10
-67.54956786858213
 20
110.6501141666917
 30
0.0
 11
-67.5486642864422
 21
110.6707150475117
 31
0.0
  0
LINE
  5
FF
330
BB
100
AcDbEntity
  8
0
  6
Continuous
 62
     7
370
    25
100
AcDbLine
 10
-67.5486642864422
 20
110.6707150475117
 30
0.0
 11
-67.54817952744213
 21
110.6913290194917
 31
0.0
  0
LINE
  5
100
330
BB
100
AcDbEntity
  8
0
  6
Continuous
 62
     7
370
    25
100
AcDbLine
 10
-67.54817952744213
 20
110.6913290194917
 30
0.0
 11
-67.5480946228621
 21
110.7119435731317
 31
0.0
  0
LINE
  5
101
330
BB
100
AcDbEntity
  8
0
  6
Continuous
 62
     7
370
    25
100
AcDbLine
 10
-67.5480946228621
 20
110.7119435731317
 30
0.0
 11
-67.54839199844207
 21
110.7325481826716
 31
0.0
  0
LINE
  5
102
330
BB
100
AcDbEntity
  8
0
  6
Continuous
 62
     7
370
    25
100
AcDbLine
 10
-67.54839199844207
 20
110.7325481826716
 30
0.0
 11
-67.54905834458225
 21
110.7531383573917
 31
0.0
  0
LINE
  5
103
330
BB
100
AcDbEntity
  8
0
  6
Continuous
 62
     7
370
    25
100
AcDbLine
 10
-67.54905834458225
 20
110.7531383573917
 30
0.0
 11
-67.5500811644821
 21
110.7737107597317
 31
0.0
  0
LINE
  5
104
330
BB
100
AcDbEntity
  8
0
  6
Continuous
 62
     7
370
    25
100
AcDbLine
 10
-67.5500811644821
 20
110.7737107597317
 30
0.0
 11
-67.55144795880221
 21
110.7942620546717
 31
0.0
  0
LINE
  5
105
330
BB
100
AcDbEntity
  8
0
  6
Continuous
 62
     7
370
    25
100
AcDbLine
 10
-67.55144795880221
 20
110.7942620546717
 30
0.0
 11
-67.5531462282022
 21
110.8147889071917
 31
0.0
  0
LINE
  5
106
330
BB
100
AcDbEntity
  8
0
  6
Continuous
 62
     7
370
    25
100
AcDbLine
 10
-67.5531462282022
 20
110.8147889071917
 30
0.0
 11
-67.55516347588218
 21
110.8352879746516
 31
0.0
  0
LINE
  5
107
330
BB
100
AcDbEntity
  8
0
  6
Continuous
 62
     7
370
    25
100
AcDbLine
 10
-67.55516347588218
 20
110.8352879746516
 30
0.0
 11
-67.5574872025021
 21
110.8557559245717
 31
0.0
  0
LINE
  5
108
330
BB
100
AcDbEntity
  8
0
  6
Continuous
 62
     7
370
    25
100
AcDbLine
 10
-67.5574872025021
 20
110.8557559245717
 30
0.0
 11
-67.56010490872211
 21
110.8761894168518
 31
0.0
  0
LINE
  5
109
330
BB
100
AcDbEntity
  8
0
  6
Continuous
 62
     7
370
    25
100
AcDbLine
 10
-67.56010490872211
 20
110.8761894168518
 30
0.0
 11
-67.56300409774224
 21
110.8965851190117
 31
0.0
  0
LINE
  5
10A
330
BB
100
AcDbEntity
  8
0
  6
Continuous
 62
     7
370
    25
100
AcDbLine
 10
-67.56300409774224
 20
110.8965851190117
 30
0.0
 11
-67.56617227022218
 21
110.9169396884118
 31
0.0
  0
LINE
  5
10B
330
BB
100
AcDbEntity
  8
0
  6
Continuous
 62
     7
370
    25
100
AcDbLine
 10
-67.56617227022218
 20
110.9169396884118
 30
0.0
 11
-67.56959710970216
 21
110.9372498611517
 31
0.0
  0
LINE
  5
10C
330
BB
100
AcDbEntity
  8
0
  6
Continuous
 62
     7
370
    25
100
AcDbLine
 10
-67.56959710970216
 20
110.9372498611517
 30
0.0
 11
-67.57326962458217
 21
110.9575136026916
 31
0.0
  0
LINE
  5
10D
330
BB
100
AcDbEntity
  8
0
  6
Continuous
 62
     7
370
    25
100
AcDbLine
 10
-67.57326962458217
 20
110.9575136026916
 30
0.0
 11
-67.57718372902218
 21
110.9777299681516
 31
0.0
  0
LINE
  5
10E
330
BB
100
AcDbEntity
  8
0
  6
Continuous
 62
     7
370
    25
100
AcDbLine
 10
-67.57718372902218
 20
110.9777299681516
 30
0.0
 11
-67.58133343624218
 21
110.9978980482117
 31
0.0
  0
LINE
  5
10F
330
BB
100
AcDbEntity
  8
0
  6
Continuous
 62
     7
370
    25
100
AcDbLine
 10
-67.58133343624218
 20
110.9978980482117
 30
0.0
 11
-67.58571276200212
 21
111.0180169335516
 31
0.0
  0
LINE
  5
110
330
BB
100
AcDbEntity
  8
0
  6
Continuous
 62
     7
370
    25
100
AcDbLine
 10
-67.58571276200212
 20
111.0180169335516
 30
0.0
 11
-67.59031571698222
 21
111.0380857123118
 31
0.0
  0
LINE
  5
111
330
BB
100
AcDbEntity
  8
0
  6
Continuous
 62
     7
370
    25
100
AcDbLine
 10
-67.59031571698222
 20
111.0380857123118
 30
0.0
 11
-67.59513631440211
 21
111.0581034751716
 31
0.0
  0
LINE
  5
112
330
BB
100
AcDbEntity
  8
0
  6
Continuous
 62
     7
370
    25
100
AcDbLine
 10
-67.59513631440211
 20
111.0581034751716
 30
0.0
 11
-67.60016856748223
 21
111.0780693153517
 31
0.0
  0
LINE
  5
113
330
BB
100
AcDbEntity
  8
0
  6
Continuous
 62
     7
370
    25
100
AcDbLine
 10
-67.60016856748223
 20
111.0780693153517
 30
0.0
 11
-67.6054064894422
 21
111.0979823159118
 31
0.0
  0
LINE
  5
114
330
BB
100
AcDbEntity
  8
0
  6
Continuous
 62
     7
370
    25
100
AcDbLine
 10
-67.6054064894422
 20
111.0979823159118
 30
0.0
 11
-67.61084409350212
 21
111.1178415751517
 31
0.0
  0
LINE
  5
115
330
BB
100
AcDbEntity
  8
0
  6
Continuous
 62
     7
370
    25
100
AcDbLine
 10
-67.61084409350212
 20
111.1178415751517
 30
0.0
 11
-67.61647539542207
 21
111.1376461761317
 31
0.0
  0
LINE
  5
116
330
BB
100
AcDbEntity
  8
0
  6
Continuous
 62
     7
370
    25
100
AcDbLine
 10
-67.61647539542207
 20
111.1376461761317
 30
0.0
 11
-67.62229440334215
 21
111.1573952146117
 31
0.0
  0
LINE
  5
117
330
BB
100
AcDbEntity
  8
0
  6
Continuous
 62
     7
370
    25
100
AcDbLine
 10
-67.62229440334215
 20
111.1573952146117
 30
0.0
 11
-67.62829530828219
 21
111.1770879108117
 31
0.0
  0
LINE
  5
118
330
BB
100
AcDbEntity
  8
0
  6
Continuous
 62
     7
370
    25
100
AcDbLine
 10
-67.62829530828219
 20
111.1770879108117
 30
0.0
 11
-67.6344733096422
 21
111.1967242926717
 31
0.0
  0
LINE
  5
119
330
BB
100
AcDbEntity
  8
0
  6
Continuous
 62
     7
370
    25
100
AcDbLine
 10
-67.6344733096422
 20
111.1967242926717
 30
0.0
 11
-67.64082398274218
 21
111.2163046700717
 31
0.0
  0
LINE
  5
11A
330
BB
100
AcDbEntity
  8
0
  6
Continuous
 62
     7
370
    25
100
AcDbLine
 10
-67.64082398274218
 20
111.2163046700717
 30
0.0
 11
-67.64734289782211
 21
111.2358293554317
 31
0.0
  0
LINE
  5
11B
330
BB
100
AcDbEntity
  8
0
  6
Continuous
 62
     7
370
    25
100
AcDbLine
 10
-67.64734289782211
 20
111.2358293554317
 30
0.0
 11
-67.65402562766224
 21
111.2552986611717
 31
0.0
  0
LINE
  5
11C
330
BB
100
AcDbEntity
  8
0
  6
Continuous
 62
     7
370
    25
100
AcDbLine
 10
-67.65402562766224
 20
111.2552986611717
 30
0.0
 11
-67.66086774504208
 21
111.2747128971717
 31
0.0
  0
LINE
  5
11D
330
BB
100
AcDbEntity
  8
0
  6
Continuous
 62
     7
370
    25
100
AcDbLine
 10
-67.66086774504208
 20
111.2747128971717
 30
0.0
 11
-67.66786482020223
 21
111.2940723783917
 31
0.0
  0
LINE
  5
11E
330
BB
100
AcDbEntity
  8
0
  6
Continuous
 62
     7
370
    25
100
AcDbLine
 10
-67.66786482020223
 20
111.2940723783917
 30
0.0
 11
-67.67501242592209
 21
111.3133774147117
 31
0.0
  0
LINE
  5
11F
330
BB
100
AcDbEntity
  8
0
  6
Continuous
 62
     7
370
    25
100
AcDbLine
 10
-67.67501242592209
 20
111.3133774147117
 30
0.0
 11
-67.68230613498213
 21
111.3326283185517
 31
0.0
  0
LINE
  5
120
330
BB
100
AcDbEntity
  8
0
  6
Continuous
 62
     7
370
    25
100
AcDbLine
 10
-67.68230613498213
 20
111.3326283185517
 30
0.0
 11
-67.6897415201621
 21
111.3518254048717
 31
0.0
  0
LINE
  5
121
330
BB
100
AcDbEntity
  8
0
  6
Continuous
 62
     7
370
    25
100
AcDbLine
 10
-67.6897415201621
 20
111.3518254048717
 30
0.0
 11
-67.69731414916225
 21
111.3709689810118
 31
0.0
  0
LINE
  5
122
330
BB
100
AcDbEntity
  8
0
  6
Continuous
 62
     7
370
    25
100
AcDbLine
 10
-67.69731414916225
 20
111.3709689810118
 30
0.0
 11
-67.7050195998421
 21
111.3900593619317
 31
0.0
  0
LINE
  5
123
330
BB
100
AcDbEntity
  8
0
  6
Continuous
 62
     7
370
    25
100
AcDbLine
 10
-67.7050195998421
 20
111.3900593619317
 30
0.0
 11
-67.7128534500622
 21
111.4090968600516
 31
0.0
  0
LINE
  5
124
330
BB
100
AcDbEntity
  8
0
  6
Continuous
 62
     7
370
    25
100
AcDbLine
 10
-67.7128534500622
 20
111.4090968600516
 30
0.0
 11
-67.72081201428216
 21
111.4280817344517
 31
0.0
  0
LINE
  5
125
330
BB
100
AcDbEntity
  8
0
  6
Continuous
 62
     7
370
    25
100
AcDbLine
 10
-67.72081201428216
 20
111.4280817344517
 30
0.0
 11
-67.72889295062214
 21
111.4470141502317
 31
0.0
  0
LINE
  5
126
330
BB
100
AcDbEntity
  8
0
  6
Continuous
 62
     7
370
    25
100
AcDbLine
 10
-67.72889295062214
 20
111.4470141502317
 30
0.0
 11
-67.73709405690215
 21
111.4658942648718
 31
0.0
  0
LINE
  5
127
330
BB
100
AcDbEntity
  8
0
  6
Continuous
 62
     7
370
    25
100
AcDbLine
 10
-67.73709405690215
 20
111.4658942648718
 30
0.0
 11
-67.7454131334822
 21
111.4847222333117
 31
0.0
  0
LINE
  5
128
330
BB
100
AcDbEntity
  8
0
  6
Continuous
 62
     7
370
    25
100
AcDbLine
 10
-67.7454131334822
 20
111.4847222333117
 30
0.0
 11
-67.7538479781822
 21
111.5034982130317
 31
0.0
  0
LINE
  5
129
330
BB
100
AcDbEntity
  8
0
  6
Continuous
 62
     7
370
    25
100
AcDbLine
 10
-67.7538479781822
 20
111.5034982130317
 30
0.0
 11
-67.76239639136213
 21
111.5222223615117
 31
0.0
  0
LINE
  5
12A
330
BB
100
AcDbEntity
  8
0
  6
Continuous
 62
     7
370
    25
100
AcDbLine
 10
-67.76239639136213
 20
111.5222223615117
 30
0.0
 11
-67.77105617084214
 21
111.5408948311517
 31
0.0
  0
LINE
  5
12B
330
BB
100
AcDbEntity
  8
0
  6
Continuous
 62
     7
370
    25
100
AcDbLine
 10
-67.77105617084214
 20
111.5408948311517
 30
0.0
 11
-67.77982511698212
 21
111.5595157819718
 31
0.0
  0
LINE
  5
12C
330
BB
100
AcDbEntity
  8
0
  6
Continuous
 62
     7
370
    25
100
AcDbLine
 10
-67.77982511698212
 20
111.5595157819718
 30
0.0
 11
-67.78870102760209
 21
111.5780853689118
 31
0.0
  0
LINE
  5
12D
330
BB
100
AcDbEntity
  8
0
  6
Continuous
 62
     7
370
    25
100
AcDbLine
 10
-67.78870102760209
 20
111.5780853689118
 30
0.0
 11
-67.79768170306215
 21
111.5966037494517
 31
0.0
  0
LINE
  5
12E
330
BB
100
AcDbEntity
  8
0
  6
Continuous
 62
     7
370
    25
100
AcDbLine
 10
-67.79768170306215
 20
111.5966037494517
 30
0.0
 11
-67.80676494372221
 21
111.6150710759917
 31
0.0
  0
LINE
  5
12F
330
BB
100
AcDbEntity
  8
0
  6
Continuous
 62
     7
370
    25
100
AcDbLine
 10
-67.80676494372221
 20
111.6150710759917
 30
0.0
 11
-67.81594854486218
 21
111.6334875110918
 31
0.0
  0
LINE
  5
130
330
BB
100
AcDbEntity
  8
0
  6
Continuous
 62
     7
370
    25
100
AcDbLine
 10
-67.81594854486218
 20
111.6334875110918
 30
0.0
 11
-67.82523030938216
 21
111.6518532046117
 31
0.0
  0
ENDBLK
  5
BD
330
BB
100
AcDbEntity
  8
0
100
AcDbBlockEnd
  0
BLOCK
  5
BF
330
BE
100
AcDbEntity
  8
0
100
AcDbBlockBegin
  2
DC_GROUP_AM30014_4
 70
     0
 10
0.0
 20
0.0
 30
0.0
  3
DC_GROUP_AM30014_4
  1

  0
LINE
  5
131
330
BE
100
AcDbEntity
  8
0
  6
Continuous
 62
     7
370
    25
100
AcDbLine
 10
-67.80401148720216
 20
8.309419417451664
 30
0.0
 11
-67.79599997922207
 21
8.325773443671693
 31
0.0
  0
LINE
  5
132
330
BE
100
AcDbEntity
  8
0
  6
Continuous
 62
     7
370
    25
100
AcDbLine
 10
-67.79599997922207
 20
8.325773443671693
 30
0.0
 11
-67.78806880890215
 21
8.34216792955172
 31
0.0
  0
LINE
  5
133
330
BE
100
AcDbEntity
  8
0
  6
Continuous
 62
     7
370
    25
100
AcDbLine
 10
-67.78806880890215
 20
8.34216792955172
 30
0.0
 11
-67.78021960184208
 21
8.358602925891688
 31
0.0
  0
LINE
  5
134
330
BE
100
AcDbEntity
  8
0
  6
Continuous
 62
     7
370
    25
100
AcDbLine
 10
-67.78021960184208
 20
8.358602925891688
 30
0.0
 11
-67.7724539836421
 21
8.375078483491762
 31
0.0
  0
LINE
  5
135
330
BE
100
AcDbEntity
  8
0
  6
Continuous
 62
     7
370
    25
100
AcDbLine
 10
-67.7724539836421
 20
8.375078483491762
 30
0.0
 11
-67.76477358498221
 21
8.391594650611665
 31
0.0
  0
LINE
  5
136
330
BE
100
AcDbEntity
  8
0
  6
Continuous
 62
     7
370
    25
100
AcDbLine
 10
-67.76477358498221
 20
8.391594650611665
 30
0.0
 11
-67.75718002384212
 21
8.408151483131661
 31
0.0
  0
LINE
  5
137
330
BE
100
AcDbEntity
  8
0
  6
Continuous
 62
     7
370
    25
100
AcDbLine
 10
-67.75718002384212
 20
8.408151483131661
 30
0.0
 11
-67.74967493344218
 21
8.424749026771707
 31
0.0
  0
LINE
  5
138
330
BE
100
AcDbEntity
  8
0
  6
Continuous
 62
     7
370
    25
100
AcDbLine
 10
-67.74967493344218
 20
8.424749026771707
 30
0.0
 11
-67.74225993430218
 21
8.441387334871735
 31
0.0
  0
LINE
  5
139
330
BE
100
AcDbEntity
  8
0
  6
Continuous
 62
     7
370
    25
100
AcDbLine
 10
-67.74225993430218
 20
8.441387334871735
 30
0.0
 11
-67.73493665456215
 21
8.458066458231684
 31
0.0
  0
LINE
  5
13A
330
BE
100
AcDbEntity
  8
0
  6
Continuous
 62
     7
370
    25
100
AcDbLine
 10
-67.73493665456215
 20
8.458066458231684
 30
0.0
 11
-67.7277067198221
 21
8.474786445111732
 31
0.0
  0
LINE
  5
13B
330
BE
100
AcDbEntity
  8
0
  6
Continuous
 62
     7
370
    25
100
AcDbLine
 10
-67.7277067198221
 20
8.474786445111732
 30
0.0
 11
-67.72057175314217
 21
8.491547351391688
 31
0.0
  0
LINE
  5
13C
330
BE
100
AcDbEntity
  8
0
  6
Continuous
 62
     7
370
    25
100
AcDbLine
 10
-67.72057175314217
 20
8.491547351391688
 30
0.0
 11
-67.71353338520214
 21
8.508349225331727
 31
0.0
  0
LINE
  5
13D
330
BE
100
AcDbEntity
  8
0
  6
Continuous
 62
     7
370
    25
100
AcDbLine
 10
-67.71353338520214
 20
8.508349225331727
 30
0.0
 11
-67.70659324160226
 21
8.525192115191686
 31
0.0
  0
LINE
  5
13E
330
BE
100
AcDbEntity
  8
0
  6
Continuous
 62
     7
370
    25
100
AcDbLine
 10
-67.70659324160226
 20
8.525192115191686
 30
0.0
 11
-67.69975294286212
 21
8.542076076851714
 31
0.0
  0
LINE
  5
13F
330
BE
100
AcDbEntity
  8
0
  6
Continuous
 62
     7
370
    25
100
AcDbLine
 10
-67.69975294286212
 20
8.542076076851714
 30
0.0
 11
-67.69301413236224
 21
8.559001158571647
 31
0.0
  0
LINE
  5
140
330
BE
100
AcDbEntity
  8
0
  6
Continuous
 62
     7
370
    25
100
AcDbLine
 10
-67.69301413236224
 20
8.559001158571647
 30
0.0
 11
-67.68637906562219
 21
8.575967494971707
 31
0.0
  0
LINE
  5
141
330
BE
100
AcDbEntity
  8
0
  6
Continuous
 62
     7
370
    25
100
AcDbLine
 10
-67.68637906562219
 20
8.575967494971707
 30
0.0
 11
-67.67985089732213
 21
8.592975334971726
 31
0.0
  0
LINE
  5
142
330
BE
100
AcDbEntity
  8
0
  6
Continuous
 62
     7
370
    25
100
AcDbLine
 10
-67.67985089732213
 20
8.592975334971726
 30
0.0
 11
-67.67343284818219
 21
8.610024932571633
 31
0.0
  0
LINE
  5
143
330
BE
100
AcDbEntity
  8
0
  6
Continuous
 62
     7
370
    25
100
AcDbLine
 10
-67.67343284818219
 20
8.610024932571633
 30
0.0
 11
-67.66712813892218
 21
8.62711654431169
 31
0.0
  0
LINE
  5
144
330
BE
100
AcDbEntity
  8
0
  6
Continuous
 62
     7
370
    25
100
AcDbLine
 10
-67.66712813892218
 20
8.62711654431169
 30
0.0
 11
-67.66093999026214
 21
8.644250426731702
 31
0.0
  0
LINE
  5
145
330
BE
100
AcDbEntity
  8
0
  6
Continuous
 62
     7
370
    25
100
AcDbLine
 10
-67.66093999026214
 20
8.644250426731702
 30
0.0
 11
-67.65487162292209
 21
8.661426838911694
 31
0.0
  0
LINE
  5
146
330
BE
100
AcDbEntity
  8
0
  6
Continuous
 62
     7
370
    25
100
AcDbLine
 10
-67.65487162292209
 20
8.661426838911694
 30
0.0
 11
-67.64892626016217
 21
8.67864603485171
 31
0.0
  0
LINE
  5
147
330
BE
100
AcDbEntity
  8
0
  6
Continuous
 62
     7
370
    25
100
AcDbLine
 10
-67.64892626016217
 20
8.67864603485171
 30
0.0
 11
-67.6431071201622
 21
8.695908273631659
 31
0.0
  0
LINE
  5
148
330
BE
100
AcDbEntity
  8
0
  6
Continuous
 62
     7
370
    25
100
AcDbLine
 10
-67.6431071201622
 20
8.695908273631659
 30
0.0
 11
-67.6374174261822
 21
8.713213809251698
 31
0.0
  0
LINE
  5
149
330
BE
100
AcDbEntity
  8
0
  6
Continuous
 62
     7
370
    25
100
AcDbLine
 10
-67.6374174261822
 20
8.713213809251698
 30
0.0
 11
-67.6318603989422
 21
8.730562898251748
 31
0.0
  0
LINE
  5
14A
330
BE
100
AcDbEntity
  8
0
  6
Continuous
 62
     7
370
    25
100
AcDbLine
 10
-67.6318603989422
 20
8.730562898251748
 30
0.0
 11
-67.6264392617021
 21
8.747955799711718
 31
0.0
  0
LINE
  5
14B
330
BE
100
AcDbEntity
  8
0
  6
Continuous
 62
     7
370
    25
100
AcDbLine
 10
-67.6264392617021
 20
8.747955799711718
 30
0.0
 11
-67.62115723010209
 21
8.765392767631653
 31
0.0
  0
LINE
  5
14C
330
BE
100
AcDbEntity
  8
0
  6
Continuous
 62
     7
370
    25
100
AcDbLine
 10
-67.62115723010209
 20
8.765392767631653
 30
0.0
 11
-67.61601753248215
 21
8.782874058551698
 31
0.0
  0
LINE
  5
14D
330
BE
100
AcDbEntity
  8
0
  6
Continuous
 62
     7
370
    25
100
AcDbLine
 10
-67.61601753248215
 20
8.782874058551698
 30
0.0
 11
-67.6110234225822
 21
8.800399906151739
 31
0.0
  0
LINE
  5
14E
330
BE
100
AcDbEntity
  8
0
  6
Continuous
 62
     7
370
    25
100
AcDbLine
 10
-67.6110234225822
 20
8.800399906151739
 30
0.0
 11
-67.60617910156213
 21
8.817969947211651
 31
0.0
  0
LINE
  5
14F
330
BE
100
AcDbEntity
  8
0
  6
Continuous
 62
     7
370
    25
100
AcDbLine
 10
-67.60617910156213
 20
8.817969947211651
 30
0.0
 11
-67.60148969006207
 21
8.835583224151748
 31
0.0
  0
LINE
  5
150
330
BE
100
AcDbEntity
  8
0
  6
Continuous
 62
     7
370
    25
100
AcDbLine
 10
-67.60148969006207
 20
8.835583224151748
 30
0.0
 11
-67.59696035190211
 21
8.85323876161172
 31
0.0
  0
LINE
  5
151
330
BE
100
AcDbEntity
  8
0
  6
Continuous
 62
     7
370
    25
100
AcDbLine
 10
-67.59696035190211
 20
8.85323876161172
 30
0.0
 11
-67.59259625344214
 21
8.870935576611743
 31
0.0
  0
LINE
  5
152
330
BE
100
AcDbEntity
  8
0
  6
Continuous
 62
     7
370
    25
100
AcDbLine
 10
-67.59259625344214
 20
8.870935576611743
 30
0.0
 11
-67.58840255342216
 21
8.888672691251742
 31
0.0
  0
LINE
  5
153
330
BE
100
AcDbEntity
  8
0
  6
Continuous
 62
     7
370
    25
100
AcDbLine
 10
-67.58840255342216
 20
8.888672691251742
 30
0.0
 11
-67.58438442074214
 21
8.906449125091768
 31
0.0
  0
LINE
  5
154
330
BE
100
AcDbEntity
  8
0
  6
Continuous
 62
     7
370
    25
100
AcDbLine
 10
-67.58438442074214
 20
8.906449125091768
 30
0.0
 11
-67.58054701668209
 21
8.92426390023175
 31
0.0
  0
LINE
  5
155
330
BE
100
AcDbEntity
  8
0
  6
Continuous
 62
     7
370
    25
100
AcDbLine
 10
-67.58054701668209
 20
8.92426390023175
 30
0.0
 11
-67.57689550506223
 21
8.94211603877173
 31
0.0
  0
LINE
  5
156
330
BE
100
AcDbEntity
  8
0
  6
Continuous
 62
     7
370
    25
100
AcDbLine
 10
-67.57689550506223
 20
8.94211603877173
 30
0.0
 11
-67.57343505224219
 21
8.96000455519166
 31
0.0
  0
LINE
  5
157
330
BE
100
AcDbEntity
  8
0
  6
Continuous
 62
     7
370
    25
100
AcDbLine
 10
-67.57343505224219
 20
8.96000455519166
 30
0.0
 11
-67.5701708195021
 21
8.977928474131687
 31
0.0
  0
LINE
  5
158
330
BE
100
AcDbEntity
  8
0
  6
Continuous
 62
     7
370
    25
100
AcDbLine
 10
-67.5701708195021
 20
8.977928474131687
 30
0.0
 11
-67.56710797320227
 21
8.99588681515175
 31
0.0
  0
LINE
  5
159
330
BE
100
AcDbEntity
  8
0
  6
Continuous
 62
     7
370
    25
100
AcDbLine
 10
-67.56710797320227
 20
8.99588681515175
 30
0.0
 11
-67.56425167462214
 21
9.013878597811669
 31
0.0
  0
LINE
  5
15A
330
BE
100
AcDbEntity
  8
0
  6
Continuous
 62
     7
370
    25
100
AcDbLine
 10
-67.56425167462214
 20
9.013878597811669
 30
0.0
 11
-67.56160716632223
 21
9.031902752771686
 31
0.0
  0
LINE
  5
15B
330
BE
100
AcDbEntity
  8
0
  6
Continuous
 62
     7
370
    25
100
AcDbLine
 10
-67.56160716632223
 20
9.031902752771686
 30
0.0
 11
-67.55918048842216
 21
9.049957275971707
 31
0.0
  0
LINE
  5
15C
330
BE
100
AcDbEntity
  8
0
  6
Continuous
 62
     7
370
    25
100
AcDbLine
 10
-67.55918048842216
 20
9.049957275971707
 30
0.0
 11
-67.55697814840221
 21
9.068039612171702
 31
0.0
  0
LINE
  5
15D
330
BE
100
AcDbEntity
  8
0
  6
Continuous
 62
     7
370
    25
100
AcDbLine
 10
-67.55697814840221
 20
9.068039612171702
 30
0.0
 11
-67.55500666390219
 21
9.086147206131642
 31
0.0
  0
LINE
  5
15E
330
BE
100
AcDbEntity
  8
0
  6
Continuous
 62
     7
370
    25
100
AcDbLine
 10
-67.55500666390219
 20
9.086147206131642
 30
0.0
 11
-67.55327253986218
 21
9.104277500071731
 31
0.0
  0
LINE
  5
15F
330
BE
100
AcDbEntity
  8
0
  6
Continuous
 62
     7
370
    25
100
AcDbLine
 10
-67.55327253986218
 20
9.104277500071731
 30
0.0
 11
-67.55178229900218
 21
9.122427931131739
 31
0.0
  0
LINE
  5
160
330
BE
100
AcDbEntity
  8
0
  6
Continuous
 62
     7
370
    25
100
AcDbLine
 10
-67.55178229900218
 20
9.122427931131739
 30
0.0
 11
-67.55054266724221
 21
9.140596002491662
 31
0.0
  0
LINE
  5
161
330
BE
100
AcDbEntity
  8
0
  6
Continuous
 62
     7
370
    25
100
AcDbLine
 10
-67.55054266724221
 20
9.140596002491662
 30
0.0
 11
-67.54956222470207
 21
9.158779682151732
 31
0.0
  0
LINE
  5
162
330
BE
100
AcDbEntity
  8
0
  6
Continuous
 62
     7
370
    25
100
AcDbLine
 10
-67.54956222470207
 20
9.158779682151732
 30
0.0
 11
-67.5488504633621
 21
9.176977181951685
 31
0.0
  0
LINE
  5
163
330
BE
100
AcDbEntity
  8
0
  6
Continuous
 62
     7
370
    25
100
AcDbLine
 10
-67.5488504633621
 20
9.176977181951685
 30
0.0
 11
-67.54841687774217
 21
9.195186708651732
 31
0.0
  0
LINE
  5
164
330
BE
100
AcDbEntity
  8
0
  6
Continuous
 62
     7
370
    25
100
AcDbLine
 10
-67.54841687774217
 20
9.195186708651732
 30
0.0
 11
-67.54827096998213
 21
9.213406476631718
 31
0.0
  0
LINE
  5
165
330
BE
100
AcDbEntity
  8
0
  6
Continuous
 62
     7
370
    25
100
AcDbLine
 10
-67.54827096998213
 20
9.213406476631718
 30
0.0
 11
-67.54842224222216
 21
9.231634687571642
 31
0.0
  0
LINE
  5
166
330
BE
100
AcDbEntity
  8
0
  6
Continuous
 62
     7
370
    25
100
AcDbLine
 10
-67.54842224222216
 20
9.231634687571642
 30
0.0
 11
-67.54888150470208
 21
9.249867457811689
 31
0.0
  0
LINE
  5
167
330
BE
100
AcDbEntity
  8
0
  6
Continuous
 62
     7
370
    25
100
AcDbLine
 10
-67.54888150470208
 20
9.249867457811689
 30
0.0
 11
-67.54966290776213
 21
9.26809559255176
 31
0.0
  0
LINE
  5
168
330
BE
100
AcDbEntity
  8
0
  6
Continuous
 62
     7
370
    25
100
AcDbLine
 10
-67.54966290776213
 20
9.26809559255176
 30
0.0
 11
-67.55078111228215
 21
9.286309079111703
 31
0.0
  0
LINE
  5
169
330
BE
100
AcDbEntity
  8
0
  6
Continuous
 62
     7
370
    25
100
AcDbLine
 10
-67.55078111228215
 20
9.286309079111703
 30
0.0
 11
-67.55225078422211
 21
9.304497897191737
 31
0.0
  0
LINE
  5
16A
330
BE
100
AcDbEntity
  8
0
  6
Continuous
 62
     7
370
    25
100
AcDbLine
 10
-67.55225078422211
 20
9.304497897191737
 30
0.0
 11
-67.55408658700219
 21
9.32265202903173
 31
0.0
  0
LINE
  5
16B
330
BE
100
AcDbEntity
  8
0
  6
Continuous
 62
     7
370
    25
100
AcDbLine
 10
-67.55408658700219
 20
9.32265202903173
 30
0.0
 11
-67.55630318404212
 21
9.34076145433167
 31
0.0
  0
LINE
  5
16C
330
BE
100
AcDbEntity
  8
0
  6
Continuous
 62
     7
370
    25
100
AcDbLine
 10
-67.55630318404212
 20
9.34076145433167
 30
0.0
 11
-67.5589152413022
 21
9.358816160411749
 31
0.0
  0
LINE
  5
16D
330
BE
100
AcDbEntity
  8
0
  6
Continuous
 62
     7
370
    25
100
AcDbLine
 10
-67.5589152413022
 20
9.358816160411749
 30
0.0
 11
-67.56193741966206
 21
9.376806124431738
 31
0.0
  0
LINE
  5
16E
330
BE
100
AcDbEntity
  8
0
  6
Continuous
 62
     7
370
    25
100
AcDbLine
 10
-67.56193741966206
 20
9.376806124431738
 30
0.0
 11
-67.5653843901622
 21
9.394721331171723
 31
0.0
  0
LINE
  5
16F
330
BE
100
AcDbEntity
  8
0
  6
Continuous
 62
     7
370
    25
100
AcDbLine
 10
-67.5653843901622
 20
9.394721331171723
 30
0.0
 11
-67.56927081114213
 21
9.412551762871686
 31
0.0
  0
LINE
  5
170
330
BE
100
AcDbEntity
  8
0
  6
Continuous
 62
     7
370
    25
100
AcDbLine
 10
-67.56927081114213
 20
9.412551762871686
 30
0.0
 11
-67.5736102741422
 21
9.430285956511653
 31
0.0
  0
LINE
  5
171
330
BE
100
AcDbEntity
  8
0
  6
Continuous
 62
     7
370
    25
100
AcDbLine
 10
-67.5736102741422
 20
9.430285956511653
 30
0.0
 11
-67.5784118241022
 21
9.447906327671745
 31
0.0
  0
LINE
  5
172
330
BE
100
AcDbEntity
  8
0
  6
Continuous
 62
     7
370
    25
100
AcDbLine
 10
-67.5784118241022
 20
9.447906327671745
 30
0.0
 11
-67.58368329438224
 21
9.465393668871712
 31
0.0
  0
LINE
  5
173
330
BE
100
AcDbEntity
  8
0
  6
Continuous
 62
     7
370
    25
100
AcDbLine
 10
-67.58368329438224
 20
9.465393668871712
 30
0.0
 11
-67.58943252088216
 21
9.482728770091654
 31
0.0
  0
LINE
  5
174
330
BE
100
AcDbEntity
  8
0
  6
Continuous
 62
     7
370
    25
100
AcDbLine
 10
-67.58943252088216
 20
9.482728770091654
 30
0.0
 11
-67.59566734204213
 21
9.49989243147175
 31
0.0
  0
LINE
  5
175
330
BE
100
AcDbEntity
  8
0
  6
Continuous
 62
     7
370
    25
100
AcDbLine
 10
-67.59566734204213
 20
9.49989243147175
 30
0.0
 11
-67.60239559376225
 21
9.516865440451653
 31
0.0
  0
LINE
  5
176
330
BE
100
AcDbEntity
  8
0
  6
Continuous
 62
     7
370
    25
100
AcDbLine
 10
-67.60239559376225
 20
9.516865440451653
 30
0.0
 11
-67.60962511194214
 21
9.533628592091674
 31
0.0
  0
LINE
  5
177
330
BE
100
AcDbEntity
  8
0
  6
Continuous
 62
     7
370
    25
100
AcDbLine
 10
-67.60962511194214
 20
9.533628592091674
 30
0.0
 11
-67.6173637350222
 21
9.55016268145178
 31
0.0
  0
LINE
  5
178
330
BE
100
AcDbEntity
  8
0
  6
Continuous
 62
     7
370
    25
100
AcDbLine
 10
-67.6173637350222
 20
9.55016268145178
 30
0.0
 11
-67.62561929382207
 21
9.566448501051724
 31
0.0
  0
LINE
  5
179
330
BE
100
AcDbEntity
  8
0
  6
Continuous
 62
     7
370
    25
100
AcDbLine
 10
-67.62561929382207
 20
9.566448501051724
 30
0.0
 11
-67.63439746524216
 21
9.582466056011668
 31
0.0
  0
LINE
  5
17A
330
BE
100
AcDbEntity
  8
0
  6
Continuous
 62
     7
370
    25
100
AcDbLine
 10
-67.63439746524216
 20
9.582466056011668
 30
0.0
 11
-67.64369580326218
 21
9.598192412671693
 31
0.0
  0
LINE
  5
17B
330
BE
100
AcDbEntity
  8
0
  6
Continuous
 62
     7
370
    25
100
AcDbLine
 10
-67.64369580326218
 20
9.598192412671693
 30
0.0
 11
-67.65350996448217
 21
9.613603946491736
 31
0.0
  0
LINE
  5
17C
330
BE
100
AcDbEntity
  8
0
  6
Continuous
 62
     7
370
    25
100
AcDbLine
 10
-67.65350996448217
 20
9.613603946491736
 30
0.0
 11
-67.66383560550219
 21
9.628677030391742
 31
0.0
  0
LINE
  5
17D
330
BE
100
AcDbEntity
  8
0
  6
Continuous
 62
     7
370
    25
100
AcDbLine
 10
-67.66383560550219
 20
9.628677030391742
 30
0.0
 11
-67.67466838546227
 21
9.643388044911632
 31
0.0
  0
LINE
  5
17E
330
BE
100
AcDbEntity
  8
0
  6
Continuous
 62
     7
370
    25
100
AcDbLine
 10
-67.67466838546227
 20
9.643388044911632
 30
0.0
 11
-67.68600395842213
 21
9.6577133604317
 31
0.0
  0
LINE
  5
17F
330
BE
100
AcDbEntity
  8
0
  6
Continuous
 62
     7
370
    25
100
AcDbLine
 10
-67.68600395842213
 20
9.6577133604317
 30
0.0
 11
-67.69783798352216
 21
9.671629352411657
 31
0.0
  0
LINE
  5
180
330
BE
100
AcDbEntity
  8
0
  6
Continuous
 62
     7
370
    25
100
AcDbLine
 10
-67.69783798352216
 20
9.671629352411657
 30
0.0
 11
-67.71016611736218
 21
9.685112398851658
 31
0.0
  0
LINE
  5
181
330
BE
100
AcDbEntity
  8
0
  6
Continuous
 62
     7
370
    25
100
AcDbLine
 10
-67.71016611736218
 20
9.685112398851658
 30
0.0
 11
-67.72298180166217
 21
9.698140211251626
 31
0.0
  0
LINE
  5
182
330
BE
100
AcDbEntity
  8
0
  6
Continuous
 62
     7
370
    25
100
AcDbLine
 10
-67.72298180166217
 20
9.698140211251626
 30
0.0
 11
-67.73626445734214
 21
9.710698936451678
 31
0.0
  0
LINE
  5
183
330
BE
100
AcDbEntity
  8
0
  6
Continuous
 62
     7
370
    25
100
AcDbLine
 10
-67.73626445734214
 20
9.710698936451678
 30
0.0
 11
-67.74998806210215
 21
9.722778013131716
 31
0.0
  0
LINE
  5
184
330
BE
100
AcDbEntity
  8
0
  6
Continuous
 62
     7
370
    25
100
AcDbLine
 10
-67.74998806210215
 20
9.722778013131716
 30
0.0
 11
-67.76412657332219
 21
9.734366877431768
 31
0.0
  0
LINE
  5
185
330
BE
100
AcDbEntity
  8
0
  6
Continuous
 62
     7
370
    25
100
AcDbLine
 10
-67.76412657332219
 20
9.734366877431768
 30
0.0
 11
-67.77865395346214
 21
9.745454975651711
 31
0.0
  0
LINE
  5
186
330
BE
100
AcDbEntity
  8
0
  6
Continuous
 62
     7
370
    25
100
AcDbLine
 10
-67.77865395346214
 20
9.745454975651711
 30
0.0
 11
-67.79354416244212
 21
9.756031749011669
 31
0.0
  0
LINE
  5
187
330
BE
100
AcDbEntity
  8
0
  6
Continuous
 62
     7
370
    25
100
AcDbLine
 10
-67.79354416244212
 20
9.756031749011669
 30
0.0
 11
-67.80877116272211
 21
9.766086636191773
 31
0.0
  0
LINE
  5
188
330
BE
100
AcDbEntity
  8
0
  6
Continuous
 62
     7
370
    25
100
AcDbLine
 10
-67.80877116272211
 20
9.766086636191773
 30
0.0
 11
-67.82430890914213
 21
9.775609083491787
 31
0.0
  0
ENDBLK
  5
C0
330
BE
100
AcDbEntity
  8
0
100
AcDbBlockEnd
  0
BLOCK
  5
C2
330
C1
100
AcDbEntity
  8
0
100
AcDbBlockBegin
  2
DC_GROUP_AM30014_5
 70
     0
 10
0.0
 20
0.0
 30
0.0
  3
DC_GROUP_AM30014_5
  1

  0
LINE
  5
189
330
C1
100
AcDbEntity
  8
0
  6
DASHED
 62
     7
370
    25
100
AcDbLine
 10
-67.8396807732421
 20
7.681760116511697
 30
0.0
 11
-67.78815602488214
 21
7.755239819691752
 31
0.0
  0
LINE
  5
18A
330
C1
100
AcDbEntity
  8
0
  6
DASHED
 62
     7
370
    25
100
AcDbLine
 10
-67.78815602488214
 20
7.755239819691752
 30
0.0
 11
-67.7383429876021
 21
7.828251385631717
 31
0.0
  0
LINE
  5
18B
330
C1
100
AcDbEntity
  8
0
  6
DASHED
 62
     7
370
    25
100
AcDbLine
 10
-67.7383429876021
 20
7.828251385631717
 30
0.0
 11
-67.69025069110216
 21
7.900757351871704
 31
0.0
  0
LINE
  5
18C
330
C1
100
AcDbEntity
  8
0
  6
DASHED
 62
     7
370
    25
100
AcDbLine
 10
-67.69025069110216
 20
7.900757351871704
 30
0.0
 11
-67.6438881650821
 21
7.972720255951714
 31
0.0
  0
LINE
  5
18D
330
C1
100
AcDbEntity
  8
0
  6
DASHED
 62
     7
370
    25
100
AcDbLine
 10
-67.6438881650821
 20
7.972720255951714
 30
0.0
 11
-67.5992644468621
 21
8.044102637951625
 31
0.0
  0
LINE
  5
18E
330
C1
100
AcDbEntity
  8
0
  6
DASHED
 62
     7
370
    25
100
AcDbLine
 10
-67.5992644468621
 20
8.044102637951625
 30
0.0
 11
-67.55638856360213
 21
8.114867035411663
 31
0.0
  0
LINE
  5
18F
330
C1
100
AcDbEntity
  8
0
  6
DASHED
 62
     7
370
    25
100
AcDbLine
 10
-67.55638856360213
 20
8.114867035411663
 30
0.0
 11
-67.51526955008217
 21
8.184975985871716
 31
0.0
  0
LINE
  5
190
330
C1
100
AcDbEntity
  8
0
  6
DASHED
 62
     7
370
    25
100
AcDbLine
 10
-67.51526955008217
 20
8.184975985871716
 30
0.0
 11
-67.4759164360022
 21
8.254392031951653
 31
0.0
  0
LINE
  5
191
330
C1
100
AcDbEntity
  8
0
  6
DASHED
 62
     7
370
    25
100
AcDbLine
 10
-67.4759164360022
 20
8.254392031951653
 30
0.0
 11
-67.43833825360218
 21
8.3230777111917
 31
0.0
  0
LINE
  5
192
330
C1
100
AcDbEntity
  8
0
  6
DASHED
 62
     7
370
    25
100
AcDbLine
 10
-67.43833825360218
 20
8.3230777111917
 30
0.0
 11
-67.4025440351221
 21
8.390995561131746
 31
0.0
  0
LINE
  5
193
330
C1
100
AcDbEntity
  8
0
  6
DASHED
 62
     7
370
    25
100
AcDbLine
 10
-67.4025440351221
 20
8.390995561131746
 30
0.0
 11
-67.36854028550215
 21
8.458107941511713
 31
0.0
  0
LINE
  5
194
330
C1
100
AcDbEntity
  8
0
  6
DASHED
 62
     7
370
    25
100
AcDbLine
 10
-67.36854028550215
 20
8.458107941511713
 30
0.0
 11
-67.33632269690213
 21
8.524376447531637
 31
0.0
  0
LINE
  5
195
330
C1
100
AcDbEntity
  8
0
  6
DASHED
 62
     7
370
    25
100
AcDbLine
 10
-67.33632269690213
 20
8.524376447531637
 30
0.0
 11
-67.30588405572223
 21
8.589762473731668
 31
0.0
  0
LINE
  5
196
330
C1
100
AcDbEntity
  8
0
  6
DASHED
 62
     7
370
    25
100
AcDbLine
 10
-67.30588405572223
 20
8.589762473731668
 30
0.0
 11
-67.27721715344217
 21
8.654227404491763
 31
0.0
  0
LINE
  5
197
330
C1
100
AcDbEntity
  8
0
  6
DASHED
 62
     7
370
    25
100
AcDbLine
 10
-67.27721715344217
 20
8.654227404491763
 30
0.0
 11
-67.25031477646223
 21
8.717732636891725
 31
0.0
  0
LINE
  5
198
330
C1
100
AcDbEntity
  8
0
  6
DASHED
 62
     7
370
    25
100
AcDbLine
 10
-67.25031477646223
 20
8.717732636891725
 30
0.0
 11
-67.22516971880214
 21
8.78023955785173
 31
0.0
  0
LINE
  5
199
330
C1
100
AcDbEntity
  8
0
  6
DASHED
 62
     7
370
    25
100
AcDbLine
 10
-67.22516971880214
 20
8.78023955785173
 30
0.0
 11
-67.20177476940216
 21
8.841709556831717
 31
0.0
  0
LINE
  5
19A
330
C1
100
AcDbEntity
  8
0
  6
DASHED
 62
     7
370
    25
100
AcDbLine
 10
-67.20177476940216
 20
8.841709556831717
 30
0.0
 11
-67.18012271466216
 21
8.902104028371724
 31
0.0
  0
LINE
  5
19B
330
C1
100
AcDbEntity
  8
0
  6
DASHED
 62
     7
370
    25
100
AcDbLine
 10
-67.18012271466216
 20
8.902104028371724
 30
0.0
 11
-67.16020634860217
 21
8.961384361931692
 31
0.0
  0
LINE
  5
19C
330
C1
100
AcDbEntity
  8
0
  6
DASHED
 62
     7
370
    25
100
AcDbLine
 10
-67.16020634860217
 20
8.961384361931692
 30
0.0
 11
-67.14201845762216
 21
9.019511946971676
 31
0.0
  0
LINE
  5
19D
330
C1
100
AcDbEntity
  8
0
  6
DASHED
 62
     7
370
    25
100
AcDbLine
 10
-67.14201845762216
 20
9.019511946971676
 30
0.0
 11
-67.12555183066218
 21
9.07644820597173
 31
0.0
  0
LINE
  5
19E
330
C1
100
AcDbEntity
  8
0
  6
DASHED
 62
     7
370
    25
100
AcDbLine
 10
-67.12555183066218
 20
9.07644820597173
 30
0.0
 11
-67.11079740754224
 21
9.132168236771719
 31
0.0
  0
LINE
  5
19F
330
C1
100
AcDbEntity
  8
0
  6
DASHED
 62
     7
370
    25
100
AcDbLine
 10
-67.11079740754224
 20
9.132168236771719
 30
0.0
 11
-67.09774142654214
 21
9.186682062211759
 31
0.0
  0
LINE
  5
1A0
330
C1
100
AcDbEntity
  8
0
  6
DASHED
 62
     7
370
    25
100
AcDbLine
 10
-67.09774142654214
 20
9.186682062211759
 30
0.0
 11
-67.08636938426218
 21
9.240005191531651
 31
0.0
  0
LINE
  5
1A1
330
C1
100
AcDbEntity
  8
0
  6
DASHED
 62
     7
370
    25
100
AcDbLine
 10
-67.08636938426218
 20
9.240005191531651
 30
0.0
 11
-67.0766667747622
 21
9.292153146671723
 31
0.0
  0
LINE
  5
1A2
330
C1
100
AcDbEntity
  8
0
  6
DASHED
 62
     7
370
    25
100
AcDbLine
 10
-67.0766667747622
 20
9.292153146671723
 30
0.0
 11
-67.06861909718225
 21
9.343141436871775
 31
0.0
  0
LINE
  5
1A3
330
C1
100
AcDbEntity
  8
0
  6
DASHED
 62
     7
370
    25
100
AcDbLine
 10
-67.06861909718225
 20
9.343141436871775
 30
0.0
 11
-67.06221184558206
 21
9.39298558153169
 31
0.0
  0
LINE
  5
1A4
330
C1
100
AcDbEntity
  8
0
  6
DASHED
 62
     7
370
    25
100
AcDbLine
 10
-67.06221184558206
 20
9.39298558153169
 30
0.0
 11
-67.05743051910224
 21
9.441701092431714
 31
0.0
  0
LINE
  5
1A5
330
C1
100
AcDbEntity
  8
0
  6
DASHED
 62
     7
370
    25
100
AcDbLine
 10
-67.05743051910224
 20
9.441701092431714
 30
0.0
 11
-67.05426061180208
 21
9.489303486431737
 31
0.0
  0
LINE
  5
1A6
330
C1
100
AcDbEntity
  8
0
  6
DASHED
 62
     7
370
    25
100
AcDbLine
 10
-67.05426061180208
 20
9.489303486431737
 30
0.0
 11
-67.05268762282219
 21
9.535808277851771
 31
0.0
  0
LINE
  5
1A7
330
C1
100
AcDbEntity
  8
0
  6
DASHED
 62
     7
370
    25
100
AcDbLine
 10
-67.05268762282219
 20
9.535808277851771
 30
0.0
 11
-67.05269704368209
 21
9.581230981011714
 31
0.0
  0
LINE
  5
1A8
330
C1
100
AcDbEntity
  8
0
  6
DASHED
 62
     7
370
    25
100
AcDbLine
 10
-67.05269704368209
 20
9.581230981011714
 30
0.0
 11
-67.05427440400217
 21
9.625586853691658
 31
0.0
  0
LINE
  5
1A9
330
C1
100
AcDbEntity
  8
0
  6
DASHED
 62
     7
370
    25
100
AcDbLine
 10
-67.05427440400217
 20
9.625586853691658
 30
0.0
 11
-67.05740686154218
 21
9.668875111031667
 31
0.0
  0
LINE
  5
1AA
330
C1
100
AcDbEntity
  8
0
  6
DASHED
 62
     7
370
    25
100
AcDbLine
 10
-67.05740686154218
 20
9.668875111031667
 30
0.0
 11
-67.06208417248217
 21
9.711069718031723
 31
0.0
  0
LINE
  5
1AB
330
C1
100
AcDbEntity
  8
0
  6
DASHED
 62
     7
370
    25
100
AcDbLine
 10
-67.06208417248217
 20
9.711069718031723
 30
0.0
 11
-67.06829631144217
 21
9.752142417191664
 31
0.0
  0
LINE
  5
1AC
330
C1
100
AcDbEntity
  8
0
  6
DASHED
 62
     7
370
    25
100
AcDbLine
 10
-67.06829631144217
 20
9.752142417191664
 30
0.0
 11
-67.07603325304217
 21
9.792064953551773
 31
0.0
  0
LINE
  5
1AD
330
C1
100
AcDbEntity
  8
0
  6
DASHED
 62
     7
370
    25
100
AcDbLine
 10
-67.07603325304217
 20
9.792064953551773
 30
0.0
 11
-67.08528497698217
 21
9.830809074691643
 31
0.0
  0
LINE
  5
1AE
330
C1
100
AcDbEntity
  8
0
  6
DASHED
 62
     7
370
    25
100
AcDbLine
 10
-67.08528497698217
 20
9.830809074691643
 30
0.0
 11
-67.09604146042227
 21
9.868346525651674
 31
0.0
  0
LINE
  5
1AF
330
C1
100
AcDbEntity
  8
0
  6
DASHED
 62
     7
370
    25
100
AcDbLine
 10
-67.09604146042227
 20
9.868346525651674
 30
0.0
 11
-67.10829268052214
 21
9.904649051471694
 31
0.0
  0
LINE
  5
1B0
330
C1
100
AcDbEntity
  8
0
  6
DASHED
 62
     7
370
    25
100
AcDbLine
 10
-67.10829268052214
 20
9.904649051471694
 30
0.0
 11
-67.12202861444223
 21
9.93968839973175
 31
0.0
  0
LINE
  5
1B1
330
C1
100
AcDbEntity
  8
0
  6
DASHED
 62
     7
370
    25
100
AcDbLine
 10
-67.12202861444223
 20
9.93968839973175
 30
0.0
 11
-67.1372392368022
 21
9.973436312931682
 31
0.0
  0
LINE
  5
1B2
330
C1
100
AcDbEntity
  8
0
  6
DASHED
 62
     7
370
    25
100
AcDbLine
 10
-67.1372392368022
 20
9.973436312931682
 30
0.0
 11
-67.15391452730216
 21
10.00586453611177
 31
0.0
  0
LINE
  5
1B3
330
C1
100
AcDbEntity
  8
0
  6
DASHED
 62
     7
370
    25
100
AcDbLine
 10
-67.15391452730216
 20
10.00586453611177
 30
0.0
 11
-67.17204471202217
 21
10.03694536549168
 31
0.0
  0
LINE
  5
1B4
330
C1
100
AcDbEntity
  8
0
  6
DASHED
 62
     7
370
    25
100
AcDbLine
 10
-67.17204471202217
 20
10.03694536549168
 30
0.0
 11
-67.19162574474205
 21
10.06666347725175
 31
0.0
  0
LINE
  5
1B5
330
C1
100
AcDbEntity
  8
0
  6
DASHED
 62
     7
370
    25
100
AcDbLine
 10
-67.19162574474205
 20
10.06666347725175
 30
0.0
 11
-67.21265924852207
 21
10.09501585387173
 31
0.0
  0
LINE
  5
1B6
330
C1
100
AcDbEntity
  8
0
  6
DASHED
 62
     7
370
    25
100
AcDbLine
 10
-67.21265924852207
 20
10.09501585387173
 30
0.0
 11
-67.2351470928021
 21
10.12199999853172
 31
0.0
  0
LINE
  5
1B7
330
C1
100
AcDbEntity
  8
0
  6
DASHED
 62
     7
370
    25
100
AcDbLine
 10
-67.2351470928021
 20
10.12199999853172
 30
0.0
 11
-67.2590911495621
 21
10.14761341441172
 31
0.0
  0
LINE
  5
1B8
330
C1
100
AcDbEntity
  8
0
  6
DASHED
 62
     7
370
    25
100
AcDbLine
 10
-67.2590911495621
 20
10.14761341441172
 30
0.0
 11
-67.28449328570207
 21
10.17185360723172
 31
0.0
  0
LINE
  5
1B9
330
C1
100
AcDbEntity
  8
0
  6
DASHED
 62
     7
370
    25
100
AcDbLine
 10
-67.28449328570207
 20
10.17185360723172
 30
0.0
 11
-67.31135537574221
 21
10.19471808271172
 31
0.0
  0
LINE
  5
1BA
330
C1
100
AcDbEntity
  8
0
  6
DASHED
 62
     7
370
    25
100
AcDbLine
 10
-67.31135537574221
 20
10.19471808271172
 30
0.0
 11
-67.33967928150219
 21
10.21620434403169
 31
0.0
  0
LINE
  5
1BB
330
C1
100
AcDbEntity
  8
0
  6
DASHED
 62
     7
370
    25
100
AcDbLine
 10
-67.33967928150219
 20
10.21620434403169
 30
0.0
 11
-67.36946688004207
 21
10.23630989437166
 31
0.0
  0
LINE
  5
1BC
330
C1
100
AcDbEntity
  8
0
  6
DASHED
 62
     7
370
    25
100
AcDbLine
 10
-67.36946688004207
 20
10.23630989437166
 30
0.0
 11
-67.4007200357222
 21
10.2550322419917
 31
0.0
  0
LINE
  5
1BD
330
C1
100
AcDbEntity
  8
0
  6
DASHED
 62
     7
370
    25
100
AcDbLine
 10
-67.4007200357222
 20
10.2550322419917
 30
0.0
 11
-67.43344062052222
 21
10.2723688900717
 31
0.0
  0
LINE
  5
1BE
330
C1
100
AcDbEntity
  8
0
  6
DASHED
 62
     7
370
    25
100
AcDbLine
 10
-67.43344062052222
 20
10.2723688900717
 30
0.0
 11
-67.46763014828218
 21
10.28831601591165
 31
0.0
  0
LINE
  5
1BF
330
C1
100
AcDbEntity
  8
0
  6
DASHED
 62
     7
370
    25
100
AcDbLine
 10
-67.46763014828218
 20
10.28831601591165
 30
0.0
 11
-67.50328618060223
 21
10.3028549886117
 31
0.0
  0
LINE
  5
1C0
330
C1
100
AcDbEntity
  8
0
  6
DASHED
 62
     7
370
    25
100
AcDbLine
 10
-67.50328618060223
 20
10.3028549886117
 30
0.0
 11
-67.54040380512208
 21
10.3159579164317
 31
0.0
  0
LINE
  5
1C1
330
C1
100
AcDbEntity
  8
0
  6
DASHED
 62
     7
370
    25
100
AcDbLine
 10
-67.54040380512208
 20
10.3159579164317
 30
0.0
 11
-67.57897806630217
 21
10.32759676539175
 31
0.0
  0
LINE
  5
1C2
330
C1
100
AcDbEntity
  8
0
  6
DASHED
 62
     7
370
    25
100
AcDbLine
 10
-67.57897806630217
 20
10.32759676539175
 30
0.0
 11
-67.61900401876221
 21
10.33774350659169
 31
0.0
  0
LINE
  5
1C3
330
C1
100
AcDbEntity
  8
0
  6
DASHED
 62
     7
370
    25
100
AcDbLine
 10
-67.61900401876221
 20
10.33774350659169
 30
0.0
 11
-67.66047670950218
 21
10.34637010097165
 31
0.0
  0
LINE
  5
1C4
330
C1
100
AcDbEntity
  8
0
  6
DASHED
 62
     7
370
    25
100
AcDbLine
 10
-67.66047670950218
 20
10.34637010097165
 30
0.0
 11
-67.70339118552226
 21
10.35344851963171
 31
0.0
  0
LINE
  5
1C5
330
C1
100
AcDbEntity
  8
0
  6
DASHED
 62
     7
370
    25
100
AcDbLine
 10
-67.70339118552226
 20
10.35344851963171
 30
0.0
 11
-67.74774249890208
 21
10.35895072859174
 31
0.0
  0
LINE
  5
1C6
330
C1
100
AcDbEntity
  8
0
  6
DASHED
 62
     7
370
    25
100
AcDbLine
 10
-67.74774249890208
 20
10.35895072859174
 30
0.0
 11
-67.79352569918217
 21
10.36284869387171
 31
0.0
  0
LINE
  5
1C7
330
C1
100
AcDbEntity
  8
0
  6
DASHED
 62
     7
370
    25
100
AcDbLine
 10
-67.79352569918217
 20
10.36284869387171
 30
0.0
 11
-67.84073583082215
 21
10.36511438149174
 31
0.0
  0
LINE
  5
1C8
330
C1
100
AcDbEntity
  8
0
  6
DASHED
 62
     7
370
    25
100
AcDbLine
 10
-67.84073583082215
 20
10.36511438149174
 30
0.0
 11
-67.88936794590211
 21
10.36571976255178
 31
0.0
  0
ENDBLK
  5
C3
330
C1
100
AcDbEntity
  8
0
100
AcDbBlockEnd
  0
BLOCK
  5
C5
330
C4
100
AcDbEntity
  8
0
100
AcDbBlockBegin
  2
DC_GROUP_AM30014_6
 70
     0
 10
0.0
 20
0.0
 30
0.0
  3
DC_GROUP_AM30014_6
  1

  0
LINE
  5
1C9
330
C4
100
AcDbEntity
  8
0
  6
DASHED
 62
     7
370
    25
100
AcDbLine
 10
-67.91520778754216
 20
10.36536939495173
 30
0.0
 11
-67.96391730658218
 21
10.36351437961176
 31
0.0
  0
LINE
  5
1CA
330
C4
100
AcDbEntity
  8
0
  6
DASHED
 62
     7
370
    25
100
AcDbLine
 10
-67.96391730658218
 20
10.36351437961176
 30
0.0
 11
-68.01390421702217
 21
10.36007926329174
 31
0.0
  0
LINE
  5
1CB
330
C4
100
AcDbEntity
  8
0
  6
DASHED
 62
     7
370
    25
100
AcDbLine
 10
-68.01390421702217
 20
10.36007926329174
 30
0.0
 11
-68.06514880084217
 21
10.3550489837917
 31
0.0
  0
LINE
  5
1CC
330
C4
100
AcDbEntity
  8
0
  6
DASHED
 62
     7
370
    25
100
AcDbLine
 10
-68.06514880084217
 20
10.3550489837917
 30
0.0
 11
-68.11763133240208
 21
10.34840848653167
 31
0.0
  0
LINE
  5
1CD
330
C4
100
AcDbEntity
  8
0
  6
DASHED
 62
     7
370
    25
100
AcDbLine
 10
-68.11763133240208
 20
10.34840848653167
 30
0.0
 11
-68.17133209368205
 21
10.34014270931166
 31
0.0
  0
LINE
  5
1CE
330
C4
100
AcDbEntity
  8
0
  6
DASHED
 62
     7
370
    25
100
AcDbLine
 10
-68.17133209368205
 20
10.34014270931166
 30
0.0
 11
-68.22623136158211
 21
10.33023658993173
 31
0.0
  0
LINE
  5
1CF
330
C4
100
AcDbEntity
  8
0
  6
DASHED
 62
     7
370
    25
100
AcDbLine
 10
-68.22623136158211
 20
10.33023658993173
 30
0.0
 11
-68.28230941300205
 21
10.31867507381176
 31
0.0
  0
LINE
  5
1D0
330
C4
100
AcDbEntity
  8
0
  6
DASHED
 62
     7
370
    25
100
AcDbLine
 10
-68.28230941300205
 20
10.31867507381176
 30
0.0
 11
-68.33954652738214
 21
10.30544309875168
 31
0.0
  0
LINE
  5
1D1
330
C4
100
AcDbEntity
  8
0
  6
DASHED
 62
     7
370
    25
100
AcDbLine
 10
-68.33954652738214
 20
10.30544309875168
 30
0.0
 11
-68.39792298416216
 21
10.29052560763174
 31
0.0
  0
LINE
  5
1D2
330
C4
100
AcDbEntity
  8
0
  6
DASHED
 62
     7
370
    25
100
AcDbLine
 10
-68.39792298416216
 20
10.29052560763174
 30
0.0
 11
-68.45741906278215
 21
10.27390753571174
 31
0.0
  0
LINE
  5
1D3
330
C4
100
AcDbEntity
  8
0
  6
DASHED
 62
     7
370
    25
100
AcDbLine
 10
-68.45741906278215
 20
10.27390753571174
 30
0.0
 11
-68.51801504014213
 21
10.25557382587172
 31
0.0
  0
LINE
  5
1D4
330
C4
100
AcDbEntity
  8
0
  6
DASHED
 62
     7
370
    25
100
AcDbLine
 10
-68.51801504014213
 20
10.25557382587172
 30
0.0
 11
-68.57969371282218
 21
10.23550749313168
 31
0.0
  0
LINE
  5
1D5
330
C4
100
AcDbEntity
  8
0
  6
DASHED
 62
     7
370
    25
100
AcDbLine
 10
-68.57969371282218
 20
10.23550749313168
 30
0.0
 11
-68.64244510370224
 21
10.21368602547173
 31
0.0
  0
LINE
  5
1D6
330
C4
100
AcDbEntity
  8
0
  6
DASHED
 62
     7
370
    25
100
AcDbLine
 10
-68.64244510370224
 20
10.21368602547173
 30
0.0
 11
-68.7062605259822
 21
10.19008592789172
 31
0.0
  0
LINE
  5
1D7
330
C4
100
AcDbEntity
  8
0
  6
DASHED
 62
     7
370
    25
100
AcDbLine
 10
-68.7062605259822
 20
10.19008592789172
 30
0.0
 11
-68.77113129540214
 21
10.16468369777172
 31
0.0
  0
LINE
  5
1D8
330
C4
100
AcDbEntity
  8
0
  6
DASHED
 62
     7
370
    25
100
AcDbLine
 10
-68.77113129540214
 20
10.16468369777172
 30
0.0
 11
-68.83704872262217
 21
10.13745583757171
 31
0.0
  0
LINE
  5
1D9
330
C4
100
AcDbEntity
  8
0
  6
DASHED
 62
     7
370
    25
100
AcDbLine
 10
-68.83704872262217
 20
10.13745583757171
 30
0.0
 11
-68.90400412338215
 21
10.10837885229174
 31
0.0
  0
LINE
  5
1DA
330
C4
100
AcDbEntity
  8
0
  6
DASHED
 62
     7
370
    25
100
AcDbLine
 10
-68.90400412338215
 20
10.10837885229174
 30
0.0
 11
-68.97198880834219
 21
10.07742923931167
 31
0.0
  0
LINE
  5
1DB
330
C4
100
AcDbEntity
  8
0
  6
DASHED
 62
     7
370
    25
100
AcDbLine
 10
-68.97198880834219
 20
10.07742923931167
 30
0.0
 11
-69.04099409578214
 21
10.04458350109169
 31
0.0
  0
LINE
  5
1DC
330
C4
100
AcDbEntity
  8
0
  6
DASHED
 62
     7
370
    25
100
AcDbLine
 10
-69.04099409578214
 20
10.04458350109169
 30
0.0
 11
-69.11101129636211
 21
10.00981814263164
 31
0.0
  0
LINE
  5
1DD
330
C4
100
AcDbEntity
  8
0
  6
DASHED
 62
     7
370
    25
100
AcDbLine
 10
-69.11101129636211
 20
10.00981814263164
 30
0.0
 11
-69.1820317232822
 21
9.973109658771733
 31
0.0
  0
LINE
  5
1DE
330
C4
100
AcDbEntity
  8
0
  6
DASHED
 62
     7
370
    25
100
AcDbLine
 10
-69.1820317232822
 20
9.973109658771733
 30
0.0
 11
-69.25404669228215
 21
9.934434557051674
 31
0.0
  0
LINE
  5
1DF
330
C4
100
AcDbEntity
  8
0
  6
DASHED
 62
     7
370
    25
100
AcDbLine
 10
-69.25404669228215
 20
9.934434557051674
 30
0.0
 11
-69.32704287090212
 21
9.893770538811651
 31
0.0
  0
LINE
  5
1E0
330
C4
100
AcDbEntity
  8
0
  6
DASHED
 62
     7
370
    25
100
AcDbLine
 10
-69.32704287090212
 20
9.893770538811651
 30
0.0
 11
-69.40097604282221
 21
9.85110328099168
 31
0.0
  0
LINE
  5
1E1
330
C4
100
AcDbEntity
  8
0
  6
DASHED
 62
     7
370
    25
100
AcDbLine
 10
-69.40097604282221
 20
9.85110328099168
 30
0.0
 11
-69.47578940094218
 21
9.806421721891667
 31
0.0
  0
LINE
  5
1E2
330
C4
100
AcDbEntity
  8
0
  6
DASHED
 62
     7
370
    25
100
AcDbLine
 10
-69.47578940094218
 20
9.806421721891667
 30
0.0
 11
-69.55142609244217
 21
9.75971480743172
 31
0.0
  0
LINE
  5
1E3
330
C4
100
AcDbEntity
  8
0
  6
DASHED
 62
     7
370
    25
100
AcDbLine
 10
-69.55142609244217
 20
9.75971480743172
 30
0.0
 11
-69.62782927720207
 21
9.71097148099173
 31
0.0
  0
LINE
  5
1E4
330
C4
100
AcDbEntity
  8
0
  6
DASHED
 62
     7
370
    25
100
AcDbLine
 10
-69.62782927720207
 20
9.71097148099173
 30
0.0
 11
-69.70494210240224
 21
9.660180685951701
 31
0.0
  0
LINE
  5
1E5
330
C4
100
AcDbEntity
  8
0
  6
DASHED
 62
     7
370
    25
100
AcDbLine
 10
-69.70494210240224
 20
9.660180685951701
 30
0.0
 11
-69.78270772538224
 21
9.607331370771732
 31
0.0
  0
LINE
  5
1E6
330
C4
100
AcDbEntity
  8
0
  6
DASHED
 62
     7
370
    25
100
AcDbLine
 10
-69.78270772538224
 20
9.607331370771732
 30
0.0
 11
-69.8610692958622
 21
9.552412478831712
 31
0.0
  0
LINE
  5
1E7
330
C4
100
AcDbEntity
  8
0
  6
DASHED
 62
     7
370
    25
100
AcDbLine
 10
-69.8610692958622
 20
9.552412478831712
 30
0.0
 11
-69.93996996610224
 21
9.495412956051752
 31
0.0
  0
LINE
  5
1E8
330
C4
100
AcDbEntity
  8
0
  6
DASHED
 62
     7
370
    25
100
AcDbLine
 10
-69.93996996610224
 20
9.495412956051752
 30
0.0
 11
-70.01935289344226
 21
9.436321745811739
 31
0.0
  0
LINE
  5
1E9
330
C4
100
AcDbEntity
  8
0
  6
DASHED
 62
     7
370
    25
100
AcDbLine
 10
-70.01935289344226
 20
9.436321745811739
 30
0.0
 11
-70.09916122760217
 21
9.37512779403167
 31
0.0
  0
LINE
  5
1EA
330
C4
100
AcDbEntity
  8
0
  6
DASHED
 62
     7
370
    25
100
AcDbLine
 10
-70.09916122760217
 20
9.37512779403167
 30
0.0
 11
-70.17933512618208
 21
9.311824390031717
 31
0.0
  0
LINE
  5
1EB
330
C4
100
AcDbEntity
  8
0
  6
DASHED
 62
     7
370
    25
100
AcDbLine
 10
-70.17933512618208
 20
9.311824390031717
 30
0.0
 11
-70.25976095974227
 21
9.246482846851706
 31
0.0
  0
LINE
  5
1EC
330
C4
100
AcDbEntity
  8
0
  6
DASHED
 62
     7
370
    25
100
AcDbLine
 10
-70.25976095974227
 20
9.246482846851706
 30
0.0
 11
-70.34027858636216
 21
9.179241945011682
 31
0.0
  0
LINE
  5
1ED
330
C4
100
AcDbEntity
  8
0
  6
DASHED
 62
     7
370
    25
100
AcDbLine
 10
-70.34027858636216
 20
9.179241945011682
 30
0.0
 11
-70.42072632996212
 21
9.110242697691689
 31
0.0
  0
LINE
  5
1EE
330
C4
100
AcDbEntity
  8
0
  6
DASHED
 62
     7
370
    25
100
AcDbLine
 10
-70.42072632996212
 20
9.110242697691689
 30
0.0
 11
-70.50094251700216
 21
9.039626107911687
 31
0.0
  0
LINE
  5
1EF
330
C4
100
AcDbEntity
  8
0
  6
DASHED
 62
     7
370
    25
100
AcDbLine
 10
-70.50094251700216
 20
9.039626107911687
 30
0.0
 11
-70.5807654637822
 21
8.967533183771735
 31
0.0
  0
LINE
  5
1F0
330
C4
100
AcDbEntity
  8
0
  6
DASHED
 62
     7
370
    25
100
AcDbLine
 10
-70.5807654637822
 20
8.967533183771735
 30
0.0
 11
-70.66003350184212
 21
8.894104938451761
 31
0.0
  0
LINE
  5
1F1
330
C4
100
AcDbEntity
  8
0
  6
DASHED
 62
     7
370
    25
100
AcDbLine
 10
-70.66003350184212
 20
8.894104938451761
 30
0.0
 11
-70.73858495002207
 21
8.819482374971727
 31
0.0
  0
LINE
  5
1F2
330
C4
100
AcDbEntity
  8
0
  6
DASHED
 62
     7
370
    25
100
AcDbLine
 10
-70.73858495002207
 20
8.819482374971727
 30
0.0
 11
-70.81625813224218
 21
8.743806503971683
 31
0.0
  0
LINE
  5
1F3
330
C4
100
AcDbEntity
  8
0
  6
DASHED
 62
     7
370
    25
100
AcDbLine
 10
-70.81625813224218
 20
8.743806503971683
 30
0.0
 11
-70.89289137496223
 21
8.667218331011696
 31
0.0
  0
LINE
  5
1F4
330
C4
100
AcDbEntity
  8
0
  6
DASHED
 62
     7
370
    25
100
AcDbLine
 10
-70.89289137496223
 20
8.667218331011696
 30
0.0
 11
-70.96832299956225
 21
8.589858866731703
 31
0.0
  0
LINE
  5
1F5
330
C4
100
AcDbEntity
  8
0
  6
DASHED
 62
     7
370
    25
100
AcDbLine
 10
-70.96832299956225
 20
8.589858866731703
 30
0.0
 11
-71.04239192178215
 21
8.511868669651705
 31
0.0
  0
LINE
  5
1F6
330
C4
100
AcDbEntity
  8
0
  6
DASHED
 62
     7
370
    25
100
AcDbLine
 10
-71.04239192178215
 20
8.511868669651705
 30
0.0
 11
-71.11499204328209
 21
8.4333462079517
 31
0.0
  0
LINE
  5
1F7
330
C4
100
AcDbEntity
  8
0
  6
DASHED
 62
     7
370
    25
100
AcDbLine
 10
-71.11499204328209
 20
8.4333462079517
 30
0.0
 11
-71.18611627492214
 21
8.354314209551745
 31
0.0
  0
LINE
  5
1F8
330
C4
100
AcDbEntity
  8
0
  6
DASHED
 62
     7
370
    25
100
AcDbLine
 10
-71.18611627492214
 20
8.354314209551745
 30
0.0
 11
-71.25576786536215
 21
8.274787467411699
 31
0.0
  0
LINE
  5
1F9
330
C4
100
AcDbEntity
  8
0
  6
DASHED
 62
     7
370
    25
100
AcDbLine
 10
-71.25576786536215
 20
8.274787467411699
 30
0.0
 11
-71.32395007850221
 21
8.194780779571744
 31
0.0
  0
LINE
  5
1FA
330
C4
100
AcDbEntity
  8
0
  6
DASHED
 62
     7
370
    25
100
AcDbLine
 10
-71.32395007850221
 20
8.194780779571744
 30
0.0
 11
-71.39066617062224
 21
8.114308946611715
 31
0.0
  0
LINE
  5
1FB
330
C4
100
AcDbEntity
  8
0
  6
DASHED
 62
     7
370
    25
100
AcDbLine
 10
-71.39066617062224
 20
8.114308946611715
 30
0.0
 11
-71.45591939546227
 21
8.033386761491698
 31
0.0
  0
LINE
  5
1FC
330
C4
100
AcDbEntity
  8
0
  6
DASHED
 62
     7
370
    25
100
AcDbLine
 10
-71.45591939546227
 20
8.033386761491698
 30
0.0
 11
-71.51971301438209
 21
7.952029024791756
 31
0.0
  0
LINE
  5
1FD
330
C4
100
AcDbEntity
  8
0
  6
DASHED
 62
     7
370
    25
100
AcDbLine
 10
-71.51971301438209
 20
7.952029024791756
 30
0.0
 11
-71.58205028112218
 21
7.870250532011738
 31
0.0
  0
LINE
  5
1FE
330
C4
100
AcDbEntity
  8
0
  6
DASHED
 62
     7
370
    25
100
AcDbLine
 10
-71.58205028112218
 20
7.870250532011738
 30
0.0
 11
-71.6429344545021
 21
7.788066081191715
 31
0.0
  0
LINE
  5
1FF
330
C4
100
AcDbEntity
  8
0
  6
DASHED
 62
     7
370
    25
100
AcDbLine
 10
-71.6429344545021
 20
7.788066081191715
 30
0.0
 11
-71.7023687908021
 21
7.705490470371757
 31
0.0
  0
LINE
  5
200
330
C4
100
AcDbEntity
  8
0
  6
DASHED
 62
     7
370
    25
100
AcDbLine
 10
-71.7023687908021
 20
7.705490470371757
 30
0.0
 11
-71.7603565488422
 21
7.622538497591705
 31
0.0
  0
ENDBLK
  5
C6
330
C4
100
AcDbEntity
  8
0
100
AcDbBlockEnd
  0
BLOCK
  5
C8
330
C7
100
AcDbEntity
  8
0
100
AcDbBlockBegin
  2
DC_GROUP_AM30014_7
 70
     0
 10
0.0
 20
0.0
 30
0.0
  3
DC_GROUP_AM30014_7
  1

  0
LINE
  5
201
330
C7
100
AcDbEntity
  8
0
  6
DASHED
 62
     7
370
    25
100
AcDbLine
 10
-71.7603565488422
 20
7.622538497591705
 30
0.0
 11
-71.81130749850206
 21
7.547520379911731
 31
0.0
  0
LINE
  5
202
330
C7
100
AcDbEntity
  8
0
  6
DASHED
 62
     7
370
    25
100
AcDbLine
 10
-71.81130749850206
 20
7.547520379911731
 30
0.0
 11
-71.86052518264216
 21
7.472943815831655
 31
0.0
  0
LINE
  5
203
330
C7
100
AcDbEntity
  8
0
  6
DASHED
 62
     7
370
    25
100
AcDbLine
 10
-71.86052518264216
 20
7.472943815831655
 30
0.0
 11
-71.90800504450215
 21
7.39885371001165
 31
0.0
  0
LINE
  5
204
330
C7
100
AcDbEntity
  8
0
  6
DASHED
 62
     7
370
    25
100
AcDbLine
 10
-71.90800504450215
 20
7.39885371001165
 30
0.0
 11
-71.9537425298621
 21
7.325294962031677
 31
0.0
  0
LINE
  5
205
330
C7
100
AcDbEntity
  8
0
  6
DASHED
 62
     7
370
    25
100
AcDbLine
 10
-71.9537425298621
 20
7.325294962031677
 30
0.0
 11
-71.9977330845021
 21
7.25231247655168
 31
0.0
  0
LINE
  5
206
330
C7
100
AcDbEntity
  8
0
  6
DASHED
 62
     7
370
    25
100
AcDbLine
 10
-71.9977330845021
 20
7.25231247655168
 30
0.0
 11
-72.03997215166225
 21
7.179951150611743
 31
0.0
  0
LINE
  5
207
330
C7
100
AcDbEntity
  8
0
  6
DASHED
 62
     7
370
    25
100
AcDbLine
 10
-72.03997215166225
 20
7.179951150611743
 30
0.0
 11
-72.0804551745822
 21
7.108255893951679
 31
0.0
  0
LINE
  5
208
330
C7
100
AcDbEntity
  8
0
  6
DASHED
 62
     7
370
    25
100
AcDbLine
 10
-72.0804551745822
 20
7.108255893951679
 30
0.0
 11
-72.11917759904225
 21
7.037271601071694
 31
0.0
  0
LINE
  5
209
330
C7
100
AcDbEntity
  8
0
  6
DASHED
 62
     7
370
    25
100
AcDbLine
 10
-72.11917759904225
 20
7.037271601071694
 30
0.0
 11
-72.15613487082226
 21
6.967043179171725
 31
0.0
  0
LINE
  5
20A
330
C7
100
AcDbEntity
  8
0
  6
DASHED
 62
     7
370
    25
100
AcDbLine
 10
-72.15613487082226
 20
6.967043179171725
 30
0.0
 11
-72.19132243062211
 21
6.897615525291741
 31
0.0
  0
LINE
  5
20B
330
C7
100
AcDbEntity
  8
0
  6
DASHED
 62
     7
370
    25
100
AcDbLine
 10
-72.19132243062211
 20
6.897615525291741
 30
0.0
 11
-72.2247357674022
 21
6.829033526311747
 31
0.0
  0
LINE
  5
20C
330
C7
100
AcDbEntity
  8
0
  6
DASHED
 62
     7
370
    25
100
AcDbLine
 10
-72.2247357674022
 20
6.829033526311747
 30
0.0
 11
-72.2563760368622
 21
6.76133922939178
 31
0.0
  0
LINE
  5
20D
330
C7
100
AcDbEntity
  8
0
  6
DASHED
 62
     7
370
    25
100
AcDbLine
 10
-72.2563760368622
 20
6.76133922939178
 30
0.0
 11
-72.28625568754217
 21
6.69456905051166
 31
0.0
  0
LINE
  5
20E
330
C7
100
AcDbEntity
  8
0
  6
DASHED
 62
     7
370
    25
100
AcDbLine
 10
-72.28625568754217
 20
6.69456905051166
 30
0.0
 11
-72.31438851164216
 21
6.628758732551688
 31
0.0
  0
LINE
  5
20F
330
C7
100
AcDbEntity
  8
0
  6
DASHED
 62
     7
370
    25
100
AcDbLine
 10
-72.31438851164216
 20
6.628758732551688
 30
0.0
 11
-72.34078829628208
 21
6.5639440209317
 31
0.0
  0
LINE
  5
210
330
C7
100
AcDbEntity
  8
0
  6
DASHED
 62
     7
370
    25
100
AcDbLine
 10
-72.34078829628208
 20
6.5639440209317
 30
0.0
 11
-72.36546883620224
 21
6.500160661071646
 31
0.0
  0
LINE
  5
211
330
C7
100
AcDbEntity
  8
0
  6
DASHED
 62
     7
370
    25
100
AcDbLine
 10
-72.36546883620224
 20
6.500160661071646
 30
0.0
 11
-72.38844391598218
 21
6.437444395851713
 31
0.0
  0
LINE
  5
212
330
C7
100
AcDbEntity
  8
0
  6
DASHED
 62
     7
370
    25
100
AcDbLine
 10
-72.38844391598218
 20
6.437444395851713
 30
0.0
 11
-72.40972733036222
 21
6.375830973231729
 31
0.0
  0
LINE
  5
213
330
C7
100
AcDbEntity
  8
0
  6
DASHED
 62
     7
370
    25
100
AcDbLine
 10
-72.40972733036222
 20
6.375830973231729
 30
0.0
 11
-72.42933286646223
 21
6.315356138631643
 31
0.0
  0
LINE
  5
214
330
C7
100
AcDbEntity
  8
0
  6
DASHED
 62
     7
370
    25
100
AcDbLine
 10
-72.42933286646223
 20
6.315356138631643
 30
0.0
 11
-72.4472743139421
 21
6.25605563239165
 31
0.0
  0
LINE
  5
215
330
C7
100
AcDbEntity
  8
0
  6
DASHED
 62
     7
370
    25
100
AcDbLine
 10
-72.4472743139421
 20
6.25605563239165
 30
0.0
 11
-72.46356546500215
 21
6.197965202471693
 31
0.0
  0
LINE
  5
216
330
C7
100
AcDbEntity
  8
0
  6
DASHED
 62
     7
370
    25
100
AcDbLine
 10
-72.46356546500215
 20
6.197965202471693
 30
0.0
 11
-72.47822016772227
 21
6.141119629091719
 31
0.0
  0
LINE
  5
217
330
C7
100
AcDbEntity
  8
0
  6
DASHED
 62
     7
370
    25
100
AcDbLine
 10
-72.47822016772227
 20
6.141119629091719
 30
0.0
 11
-72.49125374592211
 21
6.085529402451726
 31
0.0
  0
LINE
  5
218
330
C7
100
AcDbEntity
  8
0
  6
DASHED
 62
     7
370
    25
100
AcDbLine
 10
-72.49125374592211
 20
6.085529402451726
 30
0.0
 11
-72.50268308298212
 21
6.031179500991726
 31
0.0
  0
LINE
  5
219
330
C7
100
AcDbEntity
  8
0
  6
DASHED
 62
     7
370
    25
100
AcDbLine
 10
-72.50268308298212
 20
6.031179500991726
 30
0.0
 11
-72.51252512578219
 21
5.978053691571773
 31
0.0
  0
LINE
  5
21A
330
C7
100
AcDbEntity
  8
0
  6
DASHED
 62
     7
370
    25
100
AcDbLine
 10
-72.51252512578219
 20
5.978053691571773
 30
0.0
 11
-72.5207968288222
 21
5.926135743591686
 31
0.0
  0
LINE
  5
21B
330
C7
100
AcDbEntity
  8
0
  6
DASHED
 62
     7
370
    25
100
AcDbLine
 10
-72.5207968288222
 20
5.926135743591686
 30
0.0
 11
-72.52751514660224
 21
5.875409426451739
 31
0.0
  0
LINE
  5
21C
330
C7
100
AcDbEntity
  8
0
  6
DASHED
 62
     7
370
    25
100
AcDbLine
 10
-72.52751514660224
 20
5.875409426451739
 30
0.0
 11
-72.5326970285422
 21
5.825858504471654
 31
0.0
  0
LINE
  5
21D
330
C7
100
AcDbEntity
  8
0
  6
DASHED
 62
     7
370
    25
100
AcDbLine
 10
-72.5326970285422
 20
5.825858504471654
 30
0.0
 11
-72.53635942660219
 21
5.777466749591696
 31
0.0
  0
LINE
  5
21E
330
C7
100
AcDbEntity
  8
0
  6
DASHED
 62
     7
370
    25
100
AcDbLine
 10
-72.53635942660219
 20
5.777466749591696
 30
0.0
 11
-72.53851929528219
 21
5.730217926131701
 31
0.0
  0
LINE
  5
21F
330
C7
100
AcDbEntity
  8
0
  6
DASHED
 62
     7
370
    25
100
AcDbLine
 10
-72.53851929528219
 20
5.730217926131701
 30
0.0
 11
-72.53919358400219
 21
5.684095806031706
 31
0.0
  0
LINE
  5
220
330
C7
100
AcDbEntity
  8
0
  6
DASHED
 62
     7
370
    25
100
AcDbLine
 10
-72.53919358400219
 20
5.684095806031706
 30
0.0
 11
-72.53839924726219
 21
5.639084153611662
 31
0.0
  0
LINE
  5
221
330
C7
100
AcDbEntity
  8
0
  6
DASHED
 62
     7
370
    25
100
AcDbLine
 10
-72.53839924726219
 20
5.639084153611662
 30
0.0
 11
-72.53615246994218
 21
5.59516920207173
 31
0.0
  0
LINE
  5
222
330
C7
100
AcDbEntity
  8
0
  6
DASHED
 62
     7
370
    25
100
AcDbLine
 10
-72.53615246994218
 20
5.59516920207173
 30
0.0
 11
-72.5324621293422
 21
5.552360745651669
 31
0.0
  0
LINE
  5
223
330
C7
100
AcDbEntity
  8
0
  6
DASHED
 62
     7
370
    25
100
AcDbLine
 10
-72.5324621293422
 20
5.552360745651669
 30
0.0
 11
-72.52733302860213
 21
5.510681695151703
 31
0.0
  0
LINE
  5
224
330
C7
100
AcDbEntity
  8
0
  6
DASHED
 62
     7
370
    25
100
AcDbLine
 10
-72.52733302860213
 20
5.510681695151703
 30
0.0
 11
-72.52076992514219
 21
5.470155103611688
 31
0.0
  0
LINE
  5
225
330
C7
100
AcDbEntity
  8
0
  6
DASHED
 62
     7
370
    25
100
AcDbLine
 10
-72.52076992514219
 20
5.470155103611688
 30
0.0
 11
-72.51277757892217
 21
5.430804016451731
 31
0.0
  0
LINE
  5
226
330
C7
100
AcDbEntity
  8
0
  6
DASHED
 62
     7
370
    25
100
AcDbLine
 10
-72.51277757892217
 20
5.430804016451731
 30
0.0
 11
-72.50336075498217
 21
5.392651484171694
 31
0.0
  0
LINE
  5
227
330
C7
100
AcDbEntity
  8
0
  6
DASHED
 62
     7
370
    25
100
AcDbLine
 10
-72.50336075498217
 20
5.392651484171694
 30
0.0
 11
-72.4925242082021
 21
5.355720559811658
 31
0.0
  0
LINE
  5
228
330
C7
100
AcDbEntity
  8
0
  6
DASHED
 62
     7
370
    25
100
AcDbLine
 10
-72.4925242082021
 20
5.355720559811658
 30
0.0
 11
-72.48027270108219
 21
5.320034291331723
 31
0.0
  0
LINE
  5
229
330
C7
100
AcDbEntity
  8
0
  6
DASHED
 62
     7
370
    25
100
AcDbLine
 10
-72.48027270108219
 20
5.320034291331723
 30
0.0
 11
-72.4666109935821
 21
5.285615731771742
 31
0.0
  0
LINE
  5
22A
330
C7
100
AcDbEntity
  8
0
  6
DASHED
 62
     7
370
    25
100
AcDbLine
 10
-72.4666109935821
 20
5.285615731771742
 30
0.0
 11
-72.45154384820216
 21
5.252487926551709
 31
0.0
  0
LINE
  5
22B
330
C7
100
AcDbEntity
  8
0
  6
DASHED
 62
     7
370
    25
100
AcDbLine
 10
-72.45154384820216
 20
5.252487926551709
 30
0.0
 11
-72.43507601982219
 21
5.220673928711705
 31
0.0
  0
LINE
  5
22C
330
C7
100
AcDbEntity
  8
0
  6
DASHED
 62
     7
370
    25
100
AcDbLine
 10
-72.43507601982219
 20
5.220673928711705
 30
0.0
 11
-72.41721084092217
 21
5.190194769451779
 31
0.0
  0
LINE
  5
22D
330
C7
100
AcDbEntity
  8
0
  6
DASHED
 62
     7
370
    25
100
AcDbLine
 10
-72.41721084092217
 20
5.190194769451779
 30
0.0
 11
-72.39794522032219
 21
5.161062452811763
 31
0.0
  0
LINE
  5
22E
330
C7
100
AcDbEntity
  8
0
  6
DASHED
 62
     7
370
    25
100
AcDbLine
 10
-72.39794522032219
 20
5.161062452811763
 30
0.0
 11
-72.37727427360221
 21
5.13328645045172
 31
0.0
  0
LINE
  5
22F
330
C7
100
AcDbEntity
  8
0
  6
DASHED
 62
     7
370
    25
100
AcDbLine
 10
-72.37727427360221
 20
5.13328645045172
 30
0.0
 11
-72.35519312142208
 21
5.106876234031716
 31
0.0
  0
LINE
  5
230
330
C7
100
AcDbEntity
  8
0
  6
DASHED
 62
     7
370
    25
100
AcDbLine
 10
-72.35519312142208
 20
5.106876234031716
 30
0.0
 11
-72.33169687174211
 21
5.081841277751693
 31
0.0
  0
LINE
  5
231
330
C7
100
AcDbEntity
  8
0
  6
DASHED
 62
     7
370
    25
100
AcDbLine
 10
-72.33169687174211
 20
5.081841277751693
 30
0.0
 11
-72.30678064522215
 21
5.058191053271713
 31
0.0
  0
LINE
  5
232
330
C7
100
AcDbEntity
  8
0
  6
DASHED
 62
     7
370
    25
100
AcDbLine
 10
-72.30678064522215
 20
5.058191053271713
 30
0.0
 11
-72.28043955744215
 21
5.03593503479172
 31
0.0
  0
LINE
  5
233
330
C7
100
AcDbEntity
  8
0
  6
DASHED
 62
     7
370
    25
100
AcDbLine
 10
-72.28043955744215
 20
5.03593503479172
 30
0.0
 11
-72.25266872398208
 21
5.015082696511655
 31
0.0
  0
LINE
  5
234
330
C7
100
AcDbEntity
  8
0
  6
DASHED
 62
     7
370
    25
100
AcDbLine
 10
-72.25266872398208
 20
5.015082696511655
 30
0.0
 11
-72.22346325788214
 21
4.995643507551705
 31
0.0
  0
LINE
  5
235
330
C7
100
AcDbEntity
  8
0
  6
DASHED
 62
     7
370
    25
100
AcDbLine
 10
-72.22346325788214
 20
4.995643507551705
 30
0.0
 11
-72.19281827726206
 21
4.977626942111698
 31
0.0
  0
LINE
  5
236
330
C7
100
AcDbEntity
  8
0
  6
DASHED
 62
     7
370
    25
100
AcDbLine
 10
-72.19281827726206
 20
4.977626942111698
 30
0.0
 11
-72.16072890532212
 21
4.961042499791716
 31
0.0
  0
LINE
  5
237
330
C7
100
AcDbEntity
  8
0
  6
DASHED
 62
     7
370
    25
100
AcDbLine
 10
-72.16072890532212
 20
4.961042499791716
 30
0.0
 11
-72.12719193404212
 21
4.945904973551734
 31
0.0
  0
LINE
  5
238
330
C7
100
AcDbEntity
  8
0
  6
DASHED
 62
     7
370
    25
100
AcDbLine
 10
-72.12719193404212
 20
4.945904973551734
 30
0.0
 11
-72.09220783840226
 21
4.932240868291643
 31
0.0
  0
LINE
  5
239
330
C7
100
AcDbEntity
  8
0
  6
DASHED
 62
     7
370
    25
100
AcDbLine
 10
-72.09220783840226
 20
4.932240868291643
 30
0.0
 11
-72.05577759630216
 21
4.920078268791741
 31
0.0
  0
LINE
  5
23A
330
C7
100
AcDbEntity
  8
0
  6
DASHED
 62
     7
370
    25
100
AcDbLine
 10
-72.05577759630216
 20
4.920078268791741
 30
0.0
 11
-72.01790217548216
 21
4.909445252211668
 31
0.0
  0
LINE
  5
23B
330
C7
100
AcDbEntity
  8
0
  6
DASHED
 62
     7
370
    25
100
AcDbLine
 10
-72.01790217548216
 20
4.909445252211668
 30
0.0
 11
-71.9785825538421
 21
4.900369898251739
 31
0.0
  0
LINE
  5
23C
330
C7
100
AcDbEntity
  8
0
  6
DASHED
 62
     7
370
    25
100
AcDbLine
 10
-71.9785825538421
 20
4.900369898251739
 30
0.0
 11
-71.93781970166219
 21
4.892880284071708
 31
0.0
  0
LINE
  5
23D
330
C7
100
AcDbEntity
  8
0
  6
DASHED
 62
     7
370
    25
100
AcDbLine
 10
-71.93781970166219
 20
4.892880284071708
 30
0.0
 11
-71.89561459176218
 21
4.887004491911654
 31
0.0
  0
LINE
  5
23E
330
C7
100
AcDbEntity
  8
0
  6
DASHED
 62
     7
370
    25
100
AcDbLine
 10
-71.89561459176218
 20
4.887004491911654
 30
0.0
 11
-71.85196820204226
 21
4.882770601471663
 31
0.0
  0
LINE
  5
23F
330
C7
100
AcDbEntity
  8
0
  6
DASHED
 62
     7
370
    25
100
AcDbLine
 10
-71.85196820204226
 20
4.882770601471663
 30
0.0
 11
-71.80688150024218
 21
4.880206692451708
 31
0.0
  0
LINE
  5
240
330
C7
100
AcDbEntity
  8
0
  6
DASHED
 62
     7
370
    25
100
AcDbLine
 10
-71.80688150024218
 20
4.880206692451708
 30
0.0
 11
-71.76035546172227
 21
4.879340842011771
 31
0.0
  0
ENDBLK
  5
C9
330
C7
100
AcDbEntity
  8
0
100
AcDbBlockEnd
  0
BLOCK
  5
CB
330
CA
100
AcDbEntity
  8
0
100
AcDbBlockBegin
  2
DC_GROUP_AM30014_8
 70
     0
 10
0.0
 20
0.0
 30
0.0
  3
DC_GROUP_AM30014_8
  1

  0
LINE
  5
241
330
CA
100
AcDbEntity
  8
0
  6
DASHED
 62
     7
370
    25
100
AcDbLine
 10
-71.76036608908214
 20
115.0396178692517
 30
0.0
 11
-71.8042847287021
 21
115.0388100070117
 31
0.0
  0
LINE
  5
242
330
CA
100
AcDbEntity
  8
0
  6
DASHED
 62
     7
370
    25
100
AcDbLine
 10
-71.8042847287021
 20
115.0388100070117
 30
0.0
 11
-71.84699730774207
 21
115.0364793817518
 31
0.0
  0
LINE
  5
243
330
CA
100
AcDbEntity
  8
0
  6
DASHED
 62
     7
370
    25
100
AcDbLine
 10
-71.84699730774207
 20
115.0364793817518
 30
0.0
 11
-71.8884923581021
 21
115.0326473802717
 31
0.0
  0
LINE
  5
244
330
CA
100
AcDbEntity
  8
0
  6
DASHED
 62
     7
370
    25
100
AcDbLine
 10
-71.8884923581021
 20
115.0326473802717
 30
0.0
 11
-71.92875839644216
 21
115.0273354630317
 31
0.0
  0
LINE
  5
245
330
CA
100
AcDbEntity
  8
0
  6
DASHED
 62
     7
370
    25
100
AcDbLine
 10
-71.92875839644216
 20
115.0273354630317
 30
0.0
 11
-71.9677839546622
 21
115.0205650904917
 31
0.0
  0
LINE
  5
246
330
CA
100
AcDbEntity
  8
0
  6
DASHED
 62
     7
370
    25
100
AcDbLine
 10
-71.9677839546622
 20
115.0205650904917
 30
0.0
 11
-72.00555755450216
 21
115.0123577256517
 31
0.0
  0
LINE
  5
247
330
CA
100
AcDbEntity
  8
0
  6
DASHED
 62
     7
370
    25
100
AcDbLine
 10
-72.00555755450216
 20
115.0123577256517
 30
0.0
 11
-72.04206772278224
 21
115.0027348238918
 31
0.0
  0
LINE
  5
248
330
CA
100
AcDbEntity
  8
0
  6
DASHED
 62
     7
370
    25
100
AcDbLine
 10
-72.04206772278224
 20
115.0027348238918
 30
0.0
 11
-72.07730298378215
 21
114.9917178507517
 31
0.0
  0
LINE
  5
249
330
CA
100
AcDbEntity
  8
0
  6
DASHED
 62
     7
370
    25
100
AcDbLine
 10
-72.07730298378215
 20
114.9917178507517
 30
0.0
 11
-72.11125186178208
 21
114.9793282616116
 31
0.0
  0
LINE
  5
24A
330
CA
100
AcDbEntity
  8
0
  6
DASHED
 62
     7
370
    25
100
AcDbLine
 10
-72.11125186178208
 20
114.9793282616116
 30
0.0
 11
-72.14390288360221
 21
114.9655875220117
 31
0.0
  0
LINE
  5
24B
330
CA
100
AcDbEntity
  8
0
  6
DASHED
 62
     7
370
    25
100
AcDbLine
 10
-72.14390288360221
 20
114.9655875220117
 30
0.0
 11
-72.17524457352215
 21
114.9505170924116
 31
0.0
  0
LINE
  5
24C
330
CA
100
AcDbEntity
  8
0
  6
DASHED
 62
     7
370
    25
100
AcDbLine
 10
-72.17524457352215
 20
114.9505170924116
 30
0.0
 11
-72.20526545836219
 21
114.9341384281917
 31
0.0
  0
LINE
  5
24D
330
CA
100
AcDbEntity
  8
0
  6
DASHED
 62
     7
370
    25
100
AcDbLine
 10
-72.20526545836219
 20
114.9341384281917
 30
0.0
 11
-72.23395514698211
 21
114.9164727561318
 31
0.0
  0
LINE
  5
24E
330
CA
100
AcDbEntity
  8
0
  6
DASHED
 62
     7
370
    25
100
AcDbLine
 10
-72.23395514698211
 20
114.9164727561318
 30
0.0
 11
-72.26131353016206
 21
114.8975390093917
 31
0.0
  0
LINE
  5
24F
330
CA
100
AcDbEntity
  8
0
  6
DASHED
 62
     7
370
    25
100
AcDbLine
 10
-72.26131353016206
 20
114.8975390093917
 30
0.0
 11
-72.28734617304224
 21
114.8773548816118
 31
0.0
  0
LINE
  5
250
330
CA
100
AcDbEntity
  8
0
  6
DASHED
 62
     7
370
    25
100
AcDbLine
 10
-72.28734617304224
 20
114.8773548816118
 30
0.0
 11
-72.31205868648215
 21
114.8559380384917
 31
0.0
  0
LINE
  5
251
330
CA
100
AcDbEntity
  8
0
  6
DASHED
 62
     7
370
    25
100
AcDbLine
 10
-72.31205868648215
 20
114.8559380384917
 30
0.0
 11
-72.33545668896215
 21
114.8333061558916
 31
0.0
  0
LINE
  5
252
330
CA
100
AcDbEntity
  8
0
  6
DASHED
 62
     7
370
    25
100
AcDbLine
 10
-72.33545668896215
 20
114.8333061558916
 30
0.0
 11
-72.35754579642219
 21
114.8094769045917
 31
0.0
  0
LINE
  5
253
330
CA
100
AcDbEntity
  8
0
  6
DASHED
 62
     7
370
    25
100
AcDbLine
 10
-72.35754579642219
 20
114.8094769045917
 30
0.0
 11
-72.37833162988215
 21
114.7844679604517
 31
0.0
  0
LINE
  5
254
330
CA
100
AcDbEntity
  8
0
  6
DASHED
 62
     7
370
    25
100
AcDbLine
 10
-72.37833162988215
 20
114.7844679604517
 30
0.0
 11
-72.39781980274222
 21
114.7582969891718
 31
0.0
  0
LINE
  5
255
330
CA
100
AcDbEntity
  8
0
  6
DASHED
 62
     7
370
    25
100
AcDbLine
 10
-72.39781980274222
 20
114.7582969891718
 30
0.0
 11
-72.41601593094208
 21
114.7309816691517
 31
0.0
  0
LINE
  5
256
330
CA
100
AcDbEntity
  8
0
  6
DASHED
 62
     7
370
    25
100
AcDbLine
 10
-72.41601593094208
 20
114.7309816691517
 30
0.0
 11
-72.4329256355021
 21
114.7025396711718
 31
0.0
  0
LINE
  5
257
330
CA
100
AcDbEntity
  8
0
  6
DASHED
 62
     7
370
    25
100
AcDbLine
 10
-72.4329256355021
 20
114.7025396711718
 30
0.0
 11
-72.44855453236221
 21
114.6729886660117
 31
0.0
  0
LINE
  5
258
330
CA
100
AcDbEntity
  8
0
  6
DASHED
 62
     7
370
    25
100
AcDbLine
 10
-72.44855453236221
 20
114.6729886660117
 30
0.0
 11
-72.4629082374621
 21
114.6423463269918
 31
0.0
  0
LINE
  5
259
330
CA
100
AcDbEntity
  8
0
  6
DASHED
 62
     7
370
    25
100
AcDbLine
 10
-72.4629082374621
 20
114.6423463269918
 30
0.0
 11
-72.4759926232822
 21
114.6106318488917
 31
0.0
  0
LINE
  5
25A
330
CA
100
AcDbEntity
  8
0
  6
DASHED
 62
     7
370
    25
100
AcDbLine
 10
-72.4759926232822
 20
114.6106318488917
 30
0.0
 11
-72.4878155943021
 21
114.5778764051317
 31
0.0
  0
LINE
  5
25B
330
CA
100
AcDbEntity
  8
0
  6
DASHED
 62
     7
370
    25
100
AcDbLine
 10
-72.4878155943021
 20
114.5778764051317
 30
0.0
 11
-72.49838600750206
 21
114.5441168511117
 31
0.0
  0
LINE
  5
25C
330
CA
100
AcDbEntity
  8
0
  6
DASHED
 62
     7
370
    25
100
AcDbLine
 10
-72.49838600750206
 20
114.5441168511117
 30
0.0
 11
-72.50771273002215
 21
114.5093900777918
 31
0.0
  0
LINE
  5
25D
330
CA
100
AcDbEntity
  8
0
  6
DASHED
 62
     7
370
    25
100
AcDbLine
 10
-72.50771273002215
 20
114.5093900777918
 30
0.0
 11
-72.51580462900222
 21
114.4737329685117
 31
0.0
  0
LINE
  5
25E
330
CA
100
AcDbEntity
  8
0
  6
DASHED
 62
     7
370
    25
100
AcDbLine
 10
-72.51580462900222
 20
114.4737329685117
 30
0.0
 11
-72.52267057158213
 21
114.4371824167718
 31
0.0
  0
LINE
  5
25F
330
CA
100
AcDbEntity
  8
0
  6
DASHED
 62
     7
370
    25
100
AcDbLine
 10
-72.52267057158213
 20
114.4371824167718
 30
0.0
 11
-72.5283194198222
 21
114.3997753084517
 31
0.0
  0
LINE
  5
260
330
CA
100
AcDbEntity
  8
0
  6
DASHED
 62
     7
370
    25
100
AcDbLine
 10
-72.5283194198222
 20
114.3997753084517
 30
0.0
 11
-72.53276004594215
 21
114.3615485319717
 31
0.0
  0
LINE
  5
261
330
CA
100
AcDbEntity
  8
0
  6
DASHED
 62
     7
370
    25
100
AcDbLine
 10
-72.53276004594215
 20
114.3615485319717
 30
0.0
 11
-72.53600131200221
 21
114.3225389732117
 31
0.0
  0
LINE
  5
262
330
CA
100
AcDbEntity
  8
0
  6
DASHED
 62
     7
370
    25
100
AcDbLine
 10
-72.53600131200221
 20
114.3225389732117
 30
0.0
 11
-72.53805208260212
 21
114.2827835256717
 31
0.0
  0
LINE
  5
263
330
CA
100
AcDbEntity
  8
0
  6
DASHED
 62
     7
370
    25
100
AcDbLine
 10
-72.53805208260212
 20
114.2827835256717
 30
0.0
 11
-72.53892122996217
 21
114.2423190726917
 31
0.0
  0
LINE
  5
264
330
CA
100
AcDbEntity
  8
0
  6
DASHED
 62
     7
370
    25
100
AcDbLine
 10
-72.53892122996217
 20
114.2423190726917
 30
0.0
 11
-72.53861761614223
 21
114.2011825052317
 31
0.0
  0
LINE
  5
265
330
CA
100
AcDbEntity
  8
0
  6
DASHED
 62
     7
370
    25
100
AcDbLine
 10
-72.53861761614223
 20
114.2011825052317
 30
0.0
 11
-72.53714978062214
 21
114.1594067924918
 31
0.0
  0
LINE
  5
266
330
CA
100
AcDbEntity
  8
0
  6
DASHED
 62
     7
370
    25
100
AcDbLine
 10
-72.53714978062214
 20
114.1594067924918
 30
0.0
 11
-72.5345240937221
 21
114.1169989956717
 31
0.0
  0
LINE
  5
267
330
CA
100
AcDbEntity
  8
0
  6
DASHED
 62
     7
370
    25
100
AcDbLine
 10
-72.5345240937221
 20
114.1169989956717
 30
0.0
 11
-72.53074604692222
 21
114.0739556603717
 31
0.0
  0
LINE
  5
268
330
CA
100
AcDbEntity
  8
0
  6
DASHED
 62
     7
370
    25
100
AcDbLine
 10
-72.53074604692222
 20
114.0739556603717
 30
0.0
 11
-72.52582112916218
 21
114.0302733017117
 31
0.0
  0
LINE
  5
269
330
CA
100
AcDbEntity
  8
0
  6
DASHED
 62
     7
370
    25
100
AcDbLine
 10
-72.52582112916218
 20
114.0302733017117
 30
0.0
 11
-72.51975483192211
 21
113.9859484348116
 31
0.0
  0
LINE
  5
26A
330
CA
100
AcDbEntity
  8
0
  6
DASHED
 62
     7
370
    25
100
AcDbLine
 10
-72.51975483192211
 20
113.9859484348116
 30
0.0
 11
-72.51255264160216
 21
113.9409775773317
 31
0.0
  0
LINE
  5
26B
330
CA
100
AcDbEntity
  8
0
  6
DASHED
 62
     7
370
    25
100
AcDbLine
 10
-72.51255264160216
 20
113.9409775773317
 30
0.0
 11
-72.50422004714221
 21
113.8953572443917
 31
0.0
  0
LINE
  5
26C
330
CA
100
AcDbEntity
  8
0
  6
DASHED
 62
     7
370
    25
100
AcDbLine
 10
-72.50422004714221
 20
113.8953572443917
 30
0.0
 11
-72.49476253748219
 21
113.8490839485717
 31
0.0
  0
LINE
  5
26D
330
CA
100
AcDbEntity
  8
0
  6
DASHED
 62
     7
370
    25
100
AcDbLine
 10
-72.49476253748219
 20
113.8490839485717
 30
0.0
 11
-72.48418560156222
 21
113.8021542100718
 31
0.0
  0
LINE
  5
26E
330
CA
100
AcDbEntity
  8
0
  6
DASHED
 62
     7
370
    25
100
AcDbLine
 10
-72.48418560156222
 20
113.8021542100718
 30
0.0
 11
-72.4724947283222
 21
113.7545645414718
 31
0.0
  0
LINE
  5
26F
330
CA
100
AcDbEntity
  8
0
  6
DASHED
 62
     7
370
    25
100
AcDbLine
 10
-72.4724947283222
 20
113.7545645414718
 30
0.0
 11
-72.45969540924216
 21
113.7063114578918
 31
0.0
  0
LINE
  5
270
330
CA
100
AcDbEntity
  8
0
  6
DASHED
 62
     7
370
    25
100
AcDbLine
 10
-72.45969540924216
 20
113.7063114578918
 30
0.0
 11
-72.44579312818212
 21
113.6573914769916
 31
0.0
  0
LINE
  5
271
330
CA
100
AcDbEntity
  8
0
  6
DASHED
 62
     7
370
    25
100
AcDbLine
 10
-72.44579312818212
 20
113.6573914769916
 30
0.0
 11
-72.43079132430216
 21
113.6078018276317
 31
0.0
  0
LINE
  5
272
330
CA
100
AcDbEntity
  8
0
  6
DASHED
 62
     7
370
    25
100
AcDbLine
 10
-72.43079132430216
 20
113.6078018276317
 30
0.0
 11
-72.4146819661222
 21
113.5575437188517
 31
0.0
  0
LINE
  5
273
330
CA
100
AcDbEntity
  8
0
  6
DASHED
 62
     7
370
    25
100
AcDbLine
 10
-72.4146819661222
 20
113.5575437188517
 30
0.0
 11
-72.39745305976214
 21
113.5066197363717
 31
0.0
  0
LINE
  5
274
330
CA
100
AcDbEntity
  8
0
  6
DASHED
 62
     7
370
    25
100
AcDbLine
 10
-72.39745305976214
 20
113.5066197363717
 30
0.0
 11
-72.37909260626213
 21
113.4550324709917
 31
0.0
  0
LINE
  5
275
330
CA
100
AcDbEntity
  8
0
  6
DASHED
 62
     7
370
    25
100
AcDbLine
 10
-72.37909260626213
 20
113.4550324709917
 30
0.0
 11
-72.35958860158223
 21
113.4027845135116
 31
0.0
  0
LINE
  5
276
330
CA
100
AcDbEntity
  8
0
  6
DASHED
 62
     7
370
    25
100
AcDbLine
 10
-72.35958860158223
 20
113.4027845135116
 30
0.0
 11
-72.33892904676225
 21
113.3498784471117
 31
0.0
  0
LINE
  5
277
330
CA
100
AcDbEntity
  8
0
  6
DASHED
 62
     7
370
    25
100
AcDbLine
 10
-72.33892904676225
 20
113.3498784471117
 30
0.0
 11
-72.31710194284221
 21
113.2963168676717
 31
0.0
  0
LINE
  5
278
330
CA
100
AcDbEntity
  8
0
  6
DASHED
 62
     7
370
    25
100
AcDbLine
 10
-72.31710194284221
 20
113.2963168676717
 30
0.0
 11
-72.29409528578219
 21
113.2421023609117
 31
0.0
  0
LINE
  5
279
330
CA
100
AcDbEntity
  8
0
  6
DASHED
 62
     7
370
    25
100
AcDbLine
 10
-72.29409528578219
 20
113.2421023609117
 30
0.0
 11
-72.2698970791622
 21
113.1872375150917
 31
0.0
  0
LINE
  5
27A
330
CA
100
AcDbEntity
  8
0
  6
DASHED
 62
     7
370
    25
100
AcDbLine
 10
-72.2698970791622
 20
113.1872375150917
 30
0.0
 11
-72.24449532148219
 21
113.1317249184716
 31
0.0
  0
LINE
  5
27B
330
CA
100
AcDbEntity
  8
0
  6
DASHED
 62
     7
370
    25
100
AcDbLine
 10
-72.24449532148219
 20
113.1317249184716
 30
0.0
 11
-72.21787801124219
 21
113.0755671643917
 31
0.0
  0
LINE
  5
27C
330
CA
100
AcDbEntity
  8
0
  6
DASHED
 62
     7
370
    25
100
AcDbLine
 10
-72.21787801124219
 20
113.0755671643917
 30
0.0
 11
-72.19003314948225
 21
113.0187668385717
 31
0.0
  0
LINE
  5
27D
330
CA
100
AcDbEntity
  8
0
  6
DASHED
 62
     7
370
    25
100
AcDbLine
 10
-72.19003314948225
 20
113.0187668385717
 30
0.0
 11
-72.16095100292216
 21
112.9613306974117
 31
0.0
  0
LINE
  5
27E
330
CA
100
AcDbEntity
  8
0
  6
DASHED
 62
     7
370
    25
100
AcDbLine
 10
-72.16095100292216
 20
112.9613306974117
 30
0.0
 11
-72.13063253422217
 21
112.9032851772317
 31
0.0
  0
LINE
  5
27F
330
CA
100
AcDbEntity
  8
0
  6
DASHED
 62
     7
370
    25
100
AcDbLine
 10
-72.13063253422217
 20
112.9032851772317
 30
0.0
 11
-72.09908186834218
 21
112.8446624979316
 31
0.0
  0
LINE
  5
280
330
CA
100
AcDbEntity
  8
0
  6
DASHED
 62
     7
370
    25
100
AcDbLine
 10
-72.09908186834218
 20
112.8446624979316
 30
0.0
 11
-72.06630312008213
 21
112.7854948895717
 31
0.0
  0
LINE
  5
281
330
CA
100
AcDbEntity
  8
0
  6
DASHED
 62
     7
370
    25
100
AcDbLine
 10
-72.06630312008213
 20
112.7854948895717
 30
0.0
 11
-72.03230041186214
 21
112.7258145796717
 31
0.0
  0
LINE
  5
282
330
CA
100
AcDbEntity
  8
0
  6
DASHED
 62
     7
370
    25
100
AcDbLine
 10
-72.03230041186214
 20
112.7258145796717
 30
0.0
 11
-71.99707786102215
 21
112.6656537957516
 31
0.0
  0
LINE
  5
283
330
CA
100
AcDbEntity
  8
0
  6
DASHED
 62
     7
370
    25
100
AcDbLine
 10
-71.99707786102215
 20
112.6656537957516
 30
0.0
 11
-71.9606395849022
 21
112.6050447627917
 31
0.0
  0
LINE
  5
284
330
CA
100
AcDbEntity
  8
0
  6
DASHED
 62
     7
370
    25
100
AcDbLine
 10
-71.9606395849022
 20
112.6050447627917
 30
0.0
 11
-71.92298970846218
 21
112.5440197108517
 31
0.0
  0
LINE
  5
285
330
CA
100
AcDbEntity
  8
0
  6
DASHED
 62
     7
370
    25
100
AcDbLine
 10
-71.92298970846218
 20
112.5440197108517
 30
0.0
 11
-71.88413234650216
 21
112.4826108649117
 31
0.0
  0
LINE
  5
286
330
CA
100
AcDbEntity
  8
0
  6
DASHED
 62
     7
370
    25
100
AcDbLine
 10
-71.88413234650216
 20
112.4826108649117
 30
0.0
 11
-71.84407161890215
 21
112.4208504550317
 31
0.0
  0
LINE
  5
287
330
CA
100
AcDbEntity
  8
0
  6
DASHED
 62
     7
370
    25
100
AcDbLine
 10
-71.84407161890215
 20
112.4208504550317
 30
0.0
 11
-71.80281164808218
 21
112.3587707061917
 31
0.0
  0
LINE
  5
288
330
CA
100
AcDbEntity
  8
0
  6
DASHED
 62
     7
370
    25
100
AcDbLine
 10
-71.80281164808218
 20
112.3587707061917
 30
0.0
 11
-71.7603565488422
 21
112.2964038459117
 31
0.0
  0
ENDBLK
  5
CC
330
CA
100
AcDbEntity
  8
0
100
AcDbBlockEnd
  0
BLOCK
  5
CE
330
CD
100
AcDbEntity
  8
0
100
AcDbBlockBegin
  2
DC_GROUP_AM30014_9
 70
     0
 10
0.0
 20
0.0
 30
0.0
  3
DC_GROUP_AM30014_9
  1

  0
LINE
  5
289
330
CD
100
AcDbEntity
  8
0
  6
DASHED
 62
     7
370
    25
100
AcDbLine
 10
-71.7603565488422
 20
112.2964038459117
 30
0.0
 11
-71.70549327528215
 21
112.2178696798917
 31
0.0
  0
LINE
  5
28A
330
CD
100
AcDbEntity
  8
0
  6
DASHED
 62
     7
370
    25
100
AcDbLine
 10
-71.70549327528215
 20
112.2178696798917
 30
0.0
 11
-71.64915676108217
 21
112.1394437966117
 31
0.0
  0
LINE
  5
28B
330
CD
100
AcDbEntity
  8
0
  6
DASHED
 62
     7
370
    25
100
AcDbLine
 10
-71.64915676108217
 20
112.1394437966117
 30
0.0
 11
-71.59134155032223
 21
112.0611482229517
 31
0.0
  0
LINE
  5
28C
330
CD
100
AcDbEntity
  8
0
  6
DASHED
 62
     7
370
    25
100
AcDbLine
 10
-71.59134155032223
 20
112.0611482229517
 30
0.0
 11
-71.53204219470217
 21
111.9830049934117
 31
0.0
  0
LINE
  5
28D
330
CD
100
AcDbEntity
  8
0
  6
DASHED
 62
     7
370
    25
100
AcDbLine
 10
-71.53204219470217
 20
111.9830049934117
 30
0.0
 11
-71.47125323830221
 21
111.9050361374117
 31
0.0
  0
LINE
  5
28E
330
CD
100
AcDbEntity
  8
0
  6
DASHED
 62
     7
370
    25
100
AcDbLine
 10
-71.47125323830221
 20
111.9050361374117
 30
0.0
 11
-71.40896923282219
 21
111.8272636869117
 31
0.0
  0
LINE
  5
28F
330
CD
100
AcDbEntity
  8
0
  6
DASHED
 62
     7
370
    25
100
AcDbLine
 10
-71.40896923282219
 20
111.8272636869117
 30
0.0
 11
-71.3451847223422
 21
111.7497096713317
 31
0.0
  0
LINE
  5
290
330
CD
100
AcDbEntity
  8
0
  6
DASHED
 62
     7
370
    25
100
AcDbLine
 10
-71.3451847223422
 20
111.7497096713317
 30
0.0
 11
-71.2798942560222
 21
111.6723961200917
 31
0.0
  0
LINE
  5
291
330
CD
100
AcDbEntity
  8
0
  6
DASHED
 62
     7
370
    25
100
AcDbLine
 10
-71.2798942560222
 20
111.6723961200917
 30
0.0
 11
-71.21309238302217
 21
111.5953450676917
 31
0.0
  0
LINE
  5
292
330
CD
100
AcDbEntity
  8
0
  6
DASHED
 62
     7
370
    25
100
AcDbLine
 10
-71.21309238302217
 20
111.5953450676917
 30
0.0
 11
-71.1447736474222
 21
111.5185785410116
 31
0.0
  0
LINE
  5
293
330
CD
100
AcDbEntity
  8
0
  6
DASHED
 62
     7
370
    25
100
AcDbLine
 10
-71.1447736474222
 20
111.5185785410116
 30
0.0
 11
-71.07493259838213
 21
111.4421185720117
 31
0.0
  0
LINE
  5
294
330
CD
100
AcDbEntity
  8
0
  6
DASHED
 62
     7
370
    25
100
AcDbLine
 10
-71.07493259838213
 20
111.4421185720117
 30
0.0
 11
-71.00356803702209
 21
111.3659906013317
 31
0.0
  0
LINE
  5
295
330
CD
100
AcDbEntity
  8
0
  6
DASHED
 62
     7
370
    25
100
AcDbLine
 10
-71.00356803702209
 20
111.3659906013317
 30
0.0
 11
-70.93075026038207
 21
111.2902773262917
 31
0.0
  0
LINE
  5
296
330
CD
100
AcDbEntity
  8
0
  6
DASHED
 62
     7
370
    25
100
AcDbLine
 10
-70.93075026038207
 20
111.2902773262917
 30
0.0
 11
-70.85660890498218
 21
111.2151089752317
 31
0.0
  0
LINE
  5
297
330
CD
100
AcDbEntity
  8
0
  6
DASHED
 62
     7
370
    25
100
AcDbLine
 10
-70.85660890498218
 20
111.2151089752317
 30
0.0
 11
-70.78127539804211
 21
111.1406172141317
 31
0.0
  0
LINE
  5
298
330
CD
100
AcDbEntity
  8
0
  6
DASHED
 62
     7
370
    25
100
AcDbLine
 10
-70.78127539804211
 20
111.1406172141317
 30
0.0
 11
-70.70488117186221
 21
111.0669337064317
 31
0.0
  0
LINE
  5
299
330
CD
100
AcDbEntity
  8
0
  6
DASHED
 62
     7
370
    25
100
AcDbLine
 10
-70.70488117186221
 20
111.0669337064317
 30
0.0
 11
-70.62755765874215
 21
110.9941901181117
 31
0.0
  0
LINE
  5
29A
330
CD
100
AcDbEntity
  8
0
  6
DASHED
 62
     7
370
    25
100
AcDbLine
 10
-70.62755765874215
 20
110.9941901181117
 30
0.0
 11
-70.54943628844217
 21
110.9225181176917
 31
0.0
  0
LINE
  5
29B
330
CD
100
AcDbEntity
  8
0
  6
DASHED
 62
     7
370
    25
100
AcDbLine
 10
-70.54943628844217
 20
110.9225181176917
 30
0.0
 11
-70.47064849326216
 21
110.8520493686117
 31
0.0
  0
LINE
  5
29C
330
CD
100
AcDbEntity
  8
0
  6
DASHED
 62
     7
370
    25
100
AcDbLine
 10
-70.47064849326216
 20
110.8520493686117
 30
0.0
 11
-70.39132570550214
 21
110.7829155368517
 31
0.0
  0
LINE
  5
29D
330
CD
100
AcDbEntity
  8
0
  6
DASHED
 62
     7
370
    25
100
AcDbLine
 10
-70.39132570550214
 20
110.7829155368517
 30
0.0
 11
-70.31159935238213
 21
110.7152482858517
 31
0.0
  0
LINE
  5
29E
330
CD
100
AcDbEntity
  8
0
  6
DASHED
 62
     7
370
    25
100
AcDbLine
 10
-70.31159935238213
 20
110.7152482858517
 30
0.0
 11
-70.23160087128224
 21
110.6491792866717
 31
0.0
  0
LINE
  5
29F
330
CD
100
AcDbEntity
  8
0
  6
DASHED
 62
     7
370
    25
100
AcDbLine
 10
-70.23160087128224
 20
110.6491792866717
 30
0.0
 11
-70.1514616691021
 21
110.5848401519517
 31
0.0
  0
LINE
  5
2A0
330
CD
100
AcDbEntity
  8
0
  6
DASHED
 62
     7
370
    25
100
AcDbLine
 10
-70.1514616691021
 20
110.5848401519517
 30
0.0
 11
-70.07130411796209
 21
110.5223360783317
 31
0.0
  0
LINE
  5
2A1
330
CD
100
AcDbEntity
  8
0
  6
DASHED
 62
     7
370
    25
100
AcDbLine
 10
-70.07130411796209
 20
110.5223360783317
 30
0.0
 11
-69.99122682828215
 21
110.4617029306118
 31
0.0
  0
LINE
  5
2A2
330
CD
100
AcDbEntity
  8
0
  6
DASHED
 62
     7
370
    25
100
AcDbLine
 10
-69.99122682828215
 20
110.4617029306118
 30
0.0
 11
-69.9113245674622
 21
110.4029653163117
 31
0.0
  0
LINE
  5
2A3
330
CD
100
AcDbEntity
  8
0
  6
DASHED
 62
     7
370
    25
100
AcDbLine
 10
-69.9113245674622
 20
110.4029653163117
 30
0.0
 11
-69.83169209274217
 21
110.3461478505717
 31
0.0
  0
LINE
  5
2A4
330
CD
100
AcDbEntity
  8
0
  6
DASHED
 62
     7
370
    25
100
AcDbLine
 10
-69.83169209274217
 20
110.3461478505717
 30
0.0
 11
-69.7524241689822
 21
110.2912751459917
 31
0.0
  0
LINE
  5
2A5
330
CD
100
AcDbEntity
  8
0
  6
DASHED
 62
     7
370
    25
100
AcDbLine
 10
-69.7524241689822
 20
110.2912751459917
 30
0.0
 11
-69.67361555850209
 21
110.2383718202517
 31
0.0
  0
LINE
  5
2A6
330
CD
100
AcDbEntity
  8
0
  6
DASHED
 62
     7
370
    25
100
AcDbLine
 10
-69.67361555850209
 20
110.2383718202517
 30
0.0
 11
-69.5953610261621
 21
110.1874624808717
 31
0.0
  0
LINE
  5
2A7
330
CD
100
AcDbEntity
  8
0
  6
DASHED
 62
     7
370
    25
100
AcDbLine
 10
-69.5953610261621
 20
110.1874624808717
 30
0.0
 11
-69.51775533428224
 21
110.1385717455318
 31
0.0
  0
LINE
  5
2A8
330
CD
100
AcDbEntity
  8
0
  6
DASHED
 62
     7
370
    25
100
AcDbLine
 10
-69.51775533428224
 20
110.1385717455318
 30
0.0
 11
-69.44089324518211
 21
110.0917242242918
 31
0.0
  0
LINE
  5
2A9
330
CD
100
AcDbEntity
  8
0
  6
DASHED
 62
     7
370
    25
100
AcDbLine
 10
-69.44089324518211
 20
110.0917242242918
 30
0.0
 11
-69.3648695186422
 21
110.0469445348317
 31
0.0
  0
LINE
  5
2AA
330
CD
100
AcDbEntity
  8
0
  6
DASHED
 62
     7
370
    25
100
AcDbLine
 10
-69.3648695186422
 20
110.0469445348317
 30
0.0
 11
-69.28977892206217
 21
110.0042572872117
 31
0.0
  0
LINE
  5
2AB
330
CD
100
AcDbEntity
  8
0
  6
DASHED
 62
     7
370
    25
100
AcDbLine
 10
-69.28977892206217
 20
110.0042572872117
 30
0.0
 11
-69.21571080502224
 21
109.9636837310717
 31
0.0
  0
LINE
  5
2AC
330
CD
100
AcDbEntity
  8
0
  6
DASHED
 62
     7
370
    25
100
AcDbLine
 10
-69.21571080502224
 20
109.9636837310717
 30
0.0
 11
-69.14270127362215
 21
109.9252120554117
 31
0.0
  0
LINE
  5
2AD
330
CD
100
AcDbEntity
  8
0
  6
DASHED
 62
     7
370
    25
100
AcDbLine
 10
-69.14270127362215
 20
109.9252120554117
 30
0.0
 11
-69.0707562003422
 21
109.8888116532317
 31
0.0
  0
LINE
  5
2AE
330
CD
100
AcDbEntity
  8
0
  6
DASHED
 62
     7
370
    25
100
AcDbLine
 10
-69.0707562003422
 20
109.8888116532317
 30
0.0
 11
-68.99988110714219
 21
109.8544517092517
 31
0.0
  0
LINE
  5
2AF
330
CD
100
AcDbEntity
  8
0
  6
DASHED
 62
     7
370
    25
100
AcDbLine
 10
-68.99988110714219
 20
109.8544517092517
 30
0.0
 11
-68.93008151598212
 21
109.8221014081917
 31
0.0
  0
LINE
  5
2B0
330
CD
100
AcDbEntity
  8
0
  6
DASHED
 62
     7
370
    25
100
AcDbLine
 10
-68.93008151598212
 20
109.8221014081917
 30
0.0
 11
-68.86136294628216
 21
109.7917299322318
 31
0.0
  0
LINE
  5
2B1
330
CD
100
AcDbEntity
  8
0
  6
DASHED
 62
     7
370
    25
100
AcDbLine
 10
-68.86136294628216
 20
109.7917299322318
 30
0.0
 11
-68.79373091746209
 21
109.7633064635517
 31
0.0
  0
LINE
  5
2B2
330
CD
100
AcDbEntity
  8
0
  6
DASHED
 62
     7
370
    25
100
AcDbLine
 10
-68.79373091746209
 20
109.7633064635517
 30
0.0
 11
-68.72719095656214
 21
109.7368001868716
 31
0.0
  0
LINE
  5
2B3
330
CD
100
AcDbEntity
  8
0
  6
DASHED
 62
     7
370
    25
100
AcDbLine
 10
-68.72719095656214
 20
109.7368001868716
 30
0.0
 11
-68.66174858046213
 21
109.7121802818316
 31
0.0
  0
LINE
  5
2B4
330
CD
100
AcDbEntity
  8
0
  6
DASHED
 62
     7
370
    25
100
AcDbLine
 10
-68.66174858046213
 20
109.7121802818316
 30
0.0
 11
-68.59740931366207
 21
109.6894159356916
 31
0.0
  0
LINE
  5
2B5
330
CD
100
AcDbEntity
  8
0
  6
DASHED
 62
     7
370
    25
100
AcDbLine
 10
-68.59740931366207
 20
109.6894159356916
 30
0.0
 11
-68.53417867558221
 21
109.6684763280918
 31
0.0
  0
LINE
  5
2B6
330
CD
100
AcDbEntity
  8
0
  6
DASHED
 62
     7
370
    25
100
AcDbLine
 10
-68.53417867558221
 20
109.6684763280918
 30
0.0
 11
-68.47206222374223
 21
109.6493307224918
 31
0.0
  0
LINE
  5
2B7
330
CD
100
AcDbEntity
  8
0
  6
DASHED
 62
     7
370
    25
100
AcDbLine
 10
-68.47206222374223
 20
109.6493307224918
 30
0.0
 11
-68.41106873384217
 21
109.6319554079918
 31
0.0
  0
LINE
  5
2B8
330
CD
100
AcDbEntity
  8
0
  6
DASHED
 62
     7
370
    25
100
AcDbLine
 10
-68.41106873384217
 20
109.6319554079918
 30
0.0
 11
-68.35121265086207
 21
109.6163390663517
 31
0.0
  0
LINE
  5
2B9
330
CD
100
AcDbEntity
  8
0
  6
DASHED
 62
     7
370
    25
100
AcDbLine
 10
-68.35121265086207
 20
109.6163390663517
 30
0.0
 11
-68.29250899382214
 21
109.6024716391717
 31
0.0
  0
LINE
  5
2BA
330
CD
100
AcDbEntity
  8
0
  6
DASHED
 62
     7
370
    25
100
AcDbLine
 10
-68.29250899382214
 20
109.6024716391717
 30
0.0
 11
-68.23497279190212
 21
109.5903430705917
 31
0.0
  0
LINE
  5
2BB
330
CD
100
AcDbEntity
  8
0
  6
DASHED
 62
     7
370
    25
100
AcDbLine
 10
-68.23497279190212
 20
109.5903430705917
 30
0.0
 11
-68.17861906158225
 21
109.5799432996718
 31
0.0
  0
LINE
  5
2BC
330
CD
100
AcDbEntity
  8
0
  6
DASHED
 62
     7
370
    25
100
AcDbLine
 10
-68.17861906158225
 20
109.5799432996718
 30
0.0
 11
-68.12346282950216
 21
109.5712622730918
 31
0.0
  0
LINE
  5
2BD
330
CD
100
AcDbEntity
  8
0
  6
DASHED
 62
     7
370
    25
100
AcDbLine
 10
-68.12346282950216
 20
109.5712622730918
 30
0.0
 11
-68.06951911722217
 21
109.5642899299117
 31
0.0
  0
LINE
  5
2BE
330
CD
100
AcDbEntity
  8
0
  6
DASHED
 62
     7
370
    25
100
AcDbLine
 10
-68.06951911722217
 20
109.5642899299117
 30
0.0
 11
-68.01680294630216
 21
109.5590162168117
 31
0.0
  0
LINE
  5
2BF
330
CD
100
AcDbEntity
  8
0
  6
DASHED
 62
     7
370
    25
100
AcDbLine
 10
-68.01680294630216
 20
109.5590162168117
 30
0.0
 11
-67.96532934338222
 21
109.5554310753917
 31
0.0
  0
LINE
  5
2C0
330
CD
100
AcDbEntity
  8
0
  6
DASHED
 62
     7
370
    25
100
AcDbLine
 10
-67.96532934338222
 20
109.5554310753917
 30
0.0
 11
-67.91511332748212
 21
109.5535244472517
 31
0.0
  0
ENDBLK
  5
CF
330
CD
100
AcDbEntity
  8
0
100
AcDbBlockEnd
  0
BLOCK
  5
D1
330
D0
100
AcDbEntity
  8
0
100
AcDbBlockBegin
  2
DC_GROUP_AM30014_10
 70
     0
 10
0.0
 20
0.0
 30
0.0
  3
DC_GROUP_AM30014_10
  1

  0
LINE
  5
2C1
330
D0
100
AcDbEntity
  8
0
  6
DASHED
 62
     7
370
    25
100
AcDbLine
 10
-67.88935011764215
 20
109.5531923803517
 30
0.0
 11
-67.8435374762222
 21
109.5537498671717
 31
0.0
  0
LINE
  5
2C2
330
D0
100
AcDbEntity
  8
0
  6
DASHED
 62
     7
370
    25
100
AcDbLine
 10
-67.8435374762222
 20
109.5537498671717
 30
0.0
 11
-67.79889099706213
 21
109.5557903964917
 31
0.0
  0
LINE
  5
2C3
330
D0
100
AcDbEntity
  8
0
  6
DASHED
 62
     7
370
    25
100
AcDbLine
 10
-67.79889099706213
 20
109.5557903964917
 30
0.0
 11
-67.75542737812214
 21
109.5592947608317
 31
0.0
  0
LINE
  5
2C4
330
D0
100
AcDbEntity
  8
0
  6
DASHED
 62
     7
370
    25
100
AcDbLine
 10
-67.75542737812214
 20
109.5592947608317
 30
0.0
 11
-67.71316351040218
 21
109.5642432294717
 31
0.0
  0
LINE
  5
2C5
330
D0
100
AcDbEntity
  8
0
  6
DASHED
 62
     7
370
    25
100
AcDbLine
 10
-67.71316351040218
 20
109.5642432294717
 30
0.0
 11
-67.67211628490224
 21
109.5706160818517
 31
0.0
  0
LINE
  5
2C6
330
D0
100
AcDbEntity
  8
0
  6
DASHED
 62
     7
370
    25
100
AcDbLine
 10
-67.67211628490224
 20
109.5706160818517
 30
0.0
 11
-67.63230258754209
 21
109.5783935872517
 31
0.0
  0
LINE
  5
2C7
330
D0
100
AcDbEntity
  8
0
  6
DASHED
 62
     7
370
    25
100
AcDbLine
 10
-67.63230258754209
 20
109.5783935872517
 30
0.0
 11
-67.59373931186212
 21
109.5875560174917
 31
0.0
  0
LINE
  5
2C8
330
D0
100
AcDbEntity
  8
0
  6
DASHED
 62
     7
370
    25
100
AcDbLine
 10
-67.59373931186212
 20
109.5875560174917
 30
0.0
 11
-67.55644334378212
 21
109.5980836494718
 31
0.0
  0
LINE
  5
2C9
330
D0
100
AcDbEntity
  8
0
  6
DASHED
 62
     7
370
    25
100
AcDbLine
 10
-67.55644334378212
 20
109.5980836494718
 30
0.0
 11
-67.52043157430217
 21
109.6099567524717
 31
0.0
  0
LINE
  5
2CA
330
D0
100
AcDbEntity
  8
0
  6
DASHED
 62
     7
370
    25
100
AcDbLine
 10
-67.52043157430217
 20
109.6099567524717
 30
0.0
 11
-67.48572089188212
 21
109.6231556033917
 31
0.0
  0
LINE
  5
2CB
330
D0
100
AcDbEntity
  8
0
  6
DASHED
 62
     7
370
    25
100
AcDbLine
 10
-67.48572089188212
 20
109.6231556033917
 30
0.0
 11
-67.4523281849821
 21
109.6376604740517
 31
0.0
  0
LINE
  5
2CC
330
D0
100
AcDbEntity
  8
0
  6
DASHED
 62
     7
370
    25
100
AcDbLine
 10
-67.4523281849821
 20
109.6376604740517
 30
0.0
 11
-67.42027034714215
 21
109.6534516362717
 31
0.0
  0
LINE
  5
2CD
330
D0
100
AcDbEntity
  8
0
  6
DASHED
 62
     7
370
    25
100
AcDbLine
 10
-67.42027034714215
 20
109.6534516362717
 30
0.0
 11
-67.38956418046212
 21
109.6705093771117
 31
0.0
  0
LINE
  5
2CE
330
D0
100
AcDbEntity
  8
0
  6
DASHED
 62
     7
370
    25
100
AcDbLine
 10
-67.38956418046212
 20
109.6705093771117
 30
0.0
 11
-67.36021980684211
 21
109.6888150275717
 31
0.0
  0
LINE
  5
2CF
330
D0
100
AcDbEntity
  8
0
  6
DASHED
 62
     7
370
    25
100
AcDbLine
 10
-67.36021980684211
 20
109.6888150275717
 30
0.0
 11
-67.33223588516216
 21
109.7083517169716
 31
0.0
  0
LINE
  5
2D0
330
D0
100
AcDbEntity
  8
0
  6
DASHED
 62
     7
370
    25
100
AcDbLine
 10
-67.33223588516216
 20
109.7083517169716
 30
0.0
 11
-67.3056099389222
 21
109.7291027473517
 31
0.0
  0
LINE
  5
2D1
330
D0
100
AcDbEntity
  8
0
  6
DASHED
 62
     7
370
    25
100
AcDbLine
 10
-67.3056099389222
 20
109.7291027473517
 30
0.0
 11
-67.28033950178212
 21
109.7510514207517
 31
0.0
  0
LINE
  5
2D2
330
D0
100
AcDbEntity
  8
0
  6
DASHED
 62
     7
370
    25
100
AcDbLine
 10
-67.28033950178212
 20
109.7510514207517
 30
0.0
 11
-67.25642209724208
 21
109.7741810392116
 31
0.0
  0
LINE
  5
2D3
330
D0
100
AcDbEntity
  8
0
  6
DASHED
 62
     7
370
    25
100
AcDbLine
 10
-67.25642209724208
 20
109.7741810392116
 30
0.0
 11
-67.2338552538821
 21
109.7984749098518
 31
0.0
  0
LINE
  5
2D4
330
D0
100
AcDbEntity
  8
0
  6
DASHED
 62
     7
370
    25
100
AcDbLine
 10
-67.2338552538821
 20
109.7984749098518
 30
0.0
 11
-67.21263650282219
 21
109.8239163321716
 31
0.0
  0
LINE
  5
2D5
330
D0
100
AcDbEntity
  8
0
  6
DASHED
 62
     7
370
    25
100
AcDbLine
 10
-67.21263650282219
 20
109.8239163321716
 30
0.0
 11
-67.19276336756218
 21
109.8504886107517
 31
0.0
  0
LINE
  5
2D6
330
D0
100
AcDbEntity
  8
0
  6
DASHED
 62
     7
370
    25
100
AcDbLine
 10
-67.19276336756218
 20
109.8504886107517
 30
0.0
 11
-67.17423337922219
 21
109.8781750476317
 31
0.0
  0
LINE
  5
2D7
330
D0
100
AcDbEntity
  8
0
  6
DASHED
 62
     7
370
    25
100
AcDbLine
 10
-67.17423337922219
 20
109.8781750476317
 30
0.0
 11
-67.15704406638213
 21
109.9069589473917
 31
0.0
  0
LINE
  5
2D8
330
D0
100
AcDbEntity
  8
0
  6
DASHED
 62
     7
370
    25
100
AcDbLine
 10
-67.15704406638213
 20
109.9069589473917
 30
0.0
 11
-67.14119295508215
 21
109.9368236120717
 31
0.0
  0
LINE
  5
2D9
330
D0
100
AcDbEntity
  8
0
  6
DASHED
 62
     7
370
    25
100
AcDbLine
 10
-67.14119295508215
 20
109.9368236120717
 30
0.0
 11
-67.12667755866221
 21
109.9677522929117
 31
0.0
  0
LINE
  5
2DA
330
D0
100
AcDbEntity
  8
0
  6
DASHED
 62
     7
370
    25
100
AcDbLine
 10
-67.12667755866221
 20
109.9677522929117
 30
0.0
 11
-67.11349321622208
 21
109.9997215457118
 31
0.0
  0
LINE
  5
2DB
330
D0
100
AcDbEntity
  8
0
  6
DASHED
 62
     7
370
    25
100
AcDbLine
 10
-67.11349321622208
 20
109.9997215457118
 30
0.0
 11
-67.10163099966223
 21
110.0326947538316
 31
0.0
  0
LINE
  5
2DC
330
D0
100
AcDbEntity
  8
0
  6
DASHED
 62
     7
370
    25
100
AcDbLine
 10
-67.10163099966223
 20
110.0326947538316
 30
0.0
 11
-67.09108148050211
 21
110.0666337613917
 31
0.0
  0
LINE
  5
2DD
330
D0
100
AcDbEntity
  8
0
  6
DASHED
 62
     7
370
    25
100
AcDbLine
 10
-67.09108148050211
 20
110.0666337613917
 30
0.0
 11
-67.08183523026219
 21
110.1015004175917
 31
0.0
  0
LINE
  5
2DE
330
D0
100
AcDbEntity
  8
0
  6
DASHED
 62
     7
370
    25
100
AcDbLine
 10
-67.08183523026219
 20
110.1015004175917
 30
0.0
 11
-67.07388282554223
 21
110.1372565640117
 31
0.0
  0
LINE
  5
2DF
330
D0
100
AcDbEntity
  8
0
  6
DASHED
 62
     7
370
    25
100
AcDbLine
 10
-67.07388282554223
 20
110.1372565640117
 30
0.0
 11
-67.06721483278216
 21
110.1738640498517
 31
0.0
  0
LINE
  5
2E0
330
D0
100
AcDbEntity
  8
0
  6
DASHED
 62
     7
370
    25
100
AcDbLine
 10
-67.06721483278216
 20
110.1738640498517
 30
0.0
 11
-67.06182183112219
 21
110.2112847192317
 31
0.0
  0
LINE
  5
2E1
330
D0
100
AcDbEntity
  8
0
  6
DASHED
 62
     7
370
    25
100
AcDbLine
 10
-67.06182183112219
 20
110.2112847192317
 30
0.0
 11
-67.05769438700224
 21
110.2494804162717
 31
0.0
  0
LINE
  5
2E2
330
D0
100
AcDbEntity
  8
0
  6
DASHED
 62
     7
370
    25
100
AcDbLine
 10
-67.05769438700224
 20
110.2494804162717
 30
0.0
 11
-67.05482307448221
 21
110.2884129876317
 31
0.0
  0
LINE
  5
2E3
330
D0
100
AcDbEntity
  8
0
  6
DASHED
 62
     7
370
    25
100
AcDbLine
 10
-67.05482307448221
 20
110.2884129876317
 30
0.0
 11
-67.0531984701621
 21
110.3280442825117
 31
0.0
  0
LINE
  5
2E4
330
D0
100
AcDbEntity
  8
0
  6
DASHED
 62
     7
370
    25
100
AcDbLine
 10
-67.0531984701621
 20
110.3280442825117
 30
0.0
 11
-67.05281114048228
 21
110.3683361399517
 31
0.0
  0
LINE
  5
2E5
330
D0
100
AcDbEntity
  8
0
  6
DASHED
 62
     7
370
    25
100
AcDbLine
 10
-67.05281114048228
 20
110.3683361399517
 30
0.0
 11
-67.05365166458216
 21
110.4092504650316
 31
0.0
  0
LINE
  5
2E6
330
D0
100
AcDbEntity
  8
0
  6
DASHED
 62
     7
370
    25
100
AcDbLine
 10
-67.05365166458216
 20
110.4092504650316
 30
0.0
 11
-67.05571157156226
 21
110.4507616875717
 31
0.0
  0
LINE
  5
2E7
330
D0
100
AcDbEntity
  8
0
  6
DASHED
 62
     7
370
    25
100
AcDbLine
 10
-67.05571157156226
 20
110.4507616875717
 30
0.0
 11
-67.05898454190219
 21
110.4928726091918
 31
0.0
  0
LINE
  5
2E8
330
D0
100
AcDbEntity
  8
0
  6
DASHED
 62
     7
370
    25
100
AcDbLine
 10
-67.05898454190219
 20
110.4928726091918
 30
0.0
 11
-67.06346455326218
 21
110.5355899304117
 31
0.0
  0
LINE
  5
2E9
330
D0
100
AcDbEntity
  8
0
  6
DASHED
 62
     7
370
    25
100
AcDbLine
 10
-67.06346455326218
 20
110.5355899304117
 30
0.0
 11
-67.0691455833022
 21
110.5789203593717
 31
0.0
  0
LINE
  5
2EA
330
D0
100
AcDbEntity
  8
0
  6
DASHED
 62
     7
370
    25
100
AcDbLine
 10
-67.0691455833022
 20
110.5789203593717
 30
0.0
 11
-67.07602161222223
 21
110.6228705915117
 31
0.0
  0
LINE
  5
2EB
330
D0
100
AcDbEntity
  8
0
  6
DASHED
 62
     7
370
    25
100
AcDbLine
 10
-67.07602161222223
 20
110.6228705915117
 30
0.0
 11
-67.08408661260216
 21
110.6674473375117
 31
0.0
  0
LINE
  5
2EC
330
D0
100
AcDbEntity
  8
0
  6
DASHED
 62
     7
370
    25
100
AcDbLine
 10
-67.08408661260216
 20
110.6674473375117
 30
0.0
 11
-67.09333456718207
 21
110.7126572953516
 31
0.0
  0
LINE
  5
2ED
330
D0
100
AcDbEntity
  8
0
  6
DASHED
 62
     7
370
    25
100
AcDbLine
 10
-67.09333456718207
 20
110.7126572953516
 30
0.0
 11
-67.10375945362216
 21
110.7585071680917
 31
0.0
  0
LINE
  5
2EE
330
D0
100
AcDbEntity
  8
0
  6
DASHED
 62
     7
370
    25
100
AcDbLine
 10
-67.10375945362216
 20
110.7585071680917
 30
0.0
 11
-67.1153552470422
 21
110.8050036638718
 31
0.0
  0
LINE
  5
2EF
330
D0
100
AcDbEntity
  8
0
  6
DASHED
 62
     7
370
    25
100
AcDbLine
 10
-67.1153552470422
 20
110.8050036638718
 30
0.0
 11
-67.12811592510218
 21
110.8521534806718
 31
0.0
  0
LINE
  5
2F0
330
D0
100
AcDbEntity
  8
0
  6
DASHED
 62
     7
370
    25
100
AcDbLine
 10
-67.12811592510218
 20
110.8521534806718
 30
0.0
 11
-67.14203546800206
 21
110.8999633215517
 31
0.0
  0
LINE
  5
2F1
330
D0
100
AcDbEntity
  8
0
  6
DASHED
 62
     7
370
    25
100
AcDbLine
 10
-67.14203546800206
 20
110.8999633215517
 30
0.0
 11
-67.15710786356215
 21
110.9484398895717
 31
0.0
  0
LINE
  5
2F2
330
D0
100
AcDbEntity
  8
0
  6
DASHED
 62
     7
370
    25
100
AcDbLine
 10
-67.15710786356215
 20
110.9484398895717
 30
0.0
 11
-67.17333133886211
 21
110.9975875179717
 31
0.0
  0
LINE
  5
2F3
330
D0
100
AcDbEntity
  8
0
  6
DASHED
 62
     7
370
    25
100
AcDbLine
 10
-67.17333133886211
 20
110.9975875179717
 30
0.0
 11
-67.19071522078218
 21
111.0474043728717
 31
0.0
  0
LINE
  5
2F4
330
D0
100
AcDbEntity
  8
0
  6
DASHED
 62
     7
370
    25
100
AcDbLine
 10
-67.19071522078218
 20
111.0474043728717
 30
0.0
 11
-67.20927062182216
 21
111.0978876272517
 31
0.0
  0
LINE
  5
2F5
330
D0
100
AcDbEntity
  8
0
  6
DASHED
 62
     7
370
    25
100
AcDbLine
 10
-67.20927062182216
 20
111.0978876272517
 30
0.0
 11
-67.22900865448207
 21
111.1490344515518
 31
0.0
  0
LINE
  5
2F6
330
D0
100
AcDbEntity
  8
0
  6
DASHED
 62
     7
370
    25
100
AcDbLine
 10
-67.22900865448207
 20
111.1490344515518
 30
0.0
 11
-67.2499404287222
 21
111.2008420162117
 31
0.0
  0
LINE
  5
2F7
330
D0
100
AcDbEntity
  8
0
  6
DASHED
 62
     7
370
    25
100
AcDbLine
 10
-67.2499404287222
 20
111.2008420162117
 30
0.0
 11
-67.2720770621221
 21
111.2533074942117
 31
0.0
  0
LINE
  5
2F8
330
D0
100
AcDbEntity
  8
0
  6
DASHED
 62
     7
370
    25
100
AcDbLine
 10
-67.2720770621221
 20
111.2533074942117
 30
0.0
 11
-67.29542966210215
 21
111.3064280585317
 31
0.0
  0
LINE
  5
2F9
330
D0
100
AcDbEntity
  8
0
  6
DASHED
 62
     7
370
    25
100
AcDbLine
 10
-67.29542966210215
 20
111.3064280585317
 30
0.0
 11
-67.32000934116218
 21
111.3602008770718
 31
0.0
  0
LINE
  5
2FA
330
D0
100
AcDbEntity
  8
0
  6
DASHED
 62
     7
370
    25
100
AcDbLine
 10
-67.32000934116218
 20
111.3602008770718
 30
0.0
 11
-67.34582721688218
 21
111.4146231202717
 31
0.0
  0
LINE
  5
2FB
330
D0
100
AcDbEntity
  8
0
  6
DASHED
 62
     7
370
    25
100
AcDbLine
 10
-67.34582721688218
 20
111.4146231202717
 30
0.0
 11
-67.37289439668223
 21
111.4696919661917
 31
0.0
  0
LINE
  5
2FC
330
D0
100
AcDbEntity
  8
0
  6
DASHED
 62
     7
370
    25
100
AcDbLine
 10
-67.37289439668223
 20
111.4696919661917
 30
0.0
 11
-67.40122199560221
 21
111.5254045776517
 31
0.0
  0
LINE
  5
2FD
330
D0
100
AcDbEntity
  8
0
  6
DASHED
 62
     7
370
    25
100
AcDbLine
 10
-67.40122199560221
 20
111.5254045776517
 30
0.0
 11
-67.4308211210622
 21
111.5817581301717
 31
0.0
  0
LINE
  5
2FE
330
D0
100
AcDbEntity
  8
0
  6
DASHED
 62
     7
370
    25
100
AcDbLine
 10
-67.4308211210622
 20
111.5817581301717
 30
0.0
 11
-67.46169915938219
 21
111.6387439877516
 31
0.0
  0
LINE
  5
2FF
330
D0
100
AcDbEntity
  8
0
  6
DASHED
 62
     7
370
    25
100
AcDbLine
 10
-67.46169915938219
 20
111.6387439877516
 30
0.0
 11
-67.4938522116621
 21
111.6963359909318
 31
0.0
  0
LINE
  5
300
330
D0
100
AcDbEntity
  8
0
  6
DASHED
 62
     7
370
    25
100
AcDbLine
 10
-67.4938522116621
 20
111.6963359909318
 30
0.0
 11
-67.52727426572221
 21
111.7545046757117
 31
0.0
  0
LINE
  5
301
330
D0
100
AcDbEntity
  8
0
  6
DASHED
 62
     7
370
    25
100
AcDbLine
 10
-67.52727426572221
 20
111.7545046757117
 30
0.0
 11
-67.56195930176216
 21
111.8132205730117
 31
0.0
  0
LINE
  5
302
330
D0
100
AcDbEntity
  8
0
  6
DASHED
 62
     7
370
    25
100
AcDbLine
 10
-67.56195930176216
 20
111.8132205730117
 30
0.0
 11
-67.59790130252225
 21
111.8724542213717
 31
0.0
  0
LINE
  5
303
330
D0
100
AcDbEntity
  8
0
  6
DASHED
 62
     7
370
    25
100
AcDbLine
 10
-67.59790130252225
 20
111.8724542213717
 30
0.0
 11
-67.6350942507421
 21
111.9321761542517
 31
0.0
  0
LINE
  5
304
330
D0
100
AcDbEntity
  8
0
  6
DASHED
 62
     7
370
    25
100
AcDbLine
 10
-67.6350942507421
 20
111.9321761542517
 30
0.0
 11
-67.67353212916214
 21
111.9923569101917
 31
0.0
  0
LINE
  5
305
330
D0
100
AcDbEntity
  8
0
  6
DASHED
 62
     7
370
    25
100
AcDbLine
 10
-67.67353212916214
 20
111.9923569101917
 30
0.0
 11
-67.7132089230621
 21
112.0529670175718
 31
0.0
  0
LINE
  5
306
330
D0
100
AcDbEntity
  8
0
  6
DASHED
 62
     7
370
    25
100
AcDbLine
 10
-67.7132089230621
 20
112.0529670175718
 30
0.0
 11
-67.75411861264217
 21
112.1139770200117
 31
0.0
  0
LINE
  5
307
330
D0
100
AcDbEntity
  8
0
  6
DASHED
 62
     7
370
    25
100
AcDbLine
 10
-67.75411861264217
 20
112.1139770200117
 30
0.0
 11
-67.7962551806421
 21
112.1753574433517
 31
0.0
  0
LINE
  5
308
330
D0
100
AcDbEntity
  8
0
  6
DASHED
 62
     7
370
    25
100
AcDbLine
 10
-67.7962551806421
 20
112.1753574433517
 30
0.0
 11
-67.8396126123422
 21
112.2370788312118
 31
0.0
  0
ENDBLK
  5
D2
330
D0
100
AcDbEntity
  8
0
100
AcDbBlockEnd
  0
BLOCK
  5
D4
330
D3
100
AcDbEntity
  8
0
100
AcDbBlockBegin
  2
DC_GROUP_AM30014_11
 70
     0
 10
0.0
 20
0.0
 30
0.0
  3
DC_GROUP_AM30014_11
  1

  0
LINE
  5
309
330
D3
100
AcDbEntity
  8
0
  6
Continuous
 62
     7
370
    25
100
AcDbLine
 10
-82.1402569370822
 20
-21.64052882824825
 30
0.0
 11
-82.1402569370822
 21
141.5594711717518
 31
0.0
  0
LINE
  5
30A
330
D3
100
AcDbEntity
  8
0
  6
Continuous
 62
     7
370
    25
100
AcDbLine
 10
-257.1402569370822
 20
-21.64052882824825
 30
0.0
 11
-257.1402569370822
 21
15.14878398480508
 31
0.0
  0
LINE
  5
30B
330
D3
100
AcDbEntity
  8
0
  6
Continuous
 62
     7
370
    25
100
AcDbLine
 10
-257.1402569370822
 20
103.1668463586982
 30
0.0
 11
-257.1402569370822
 21
141.5594711717518
 31
0.0
  0
LINE
  5
30C
330
D3
100
AcDbEntity
  8
DEFAULT_3
  6
Continuous
 62
     7
370
    25
100
AcDbLine
 10
-257.1402569370822
 20
141.5594711717518
 30
0.0
 11
-82.1402569370822
 21
141.5594711717518
 31
0.0
  0
ENDBLK
  5
D5
330
D3
100
AcDbEntity
  8
0
100
AcDbBlockEnd
  0
BLOCK
  5
D7
330
D6
100
AcDbEntity
  8
0
100
AcDbBlockBegin
  2
DC_GROUP_AM30014_12
 70
     0
 10
0.0
 20
0.0
 30
0.0
  3
DC_GROUP_AM30014_12
  1

  0
CIRCLE
  5
30D
330
D6
100
AcDbEntity
  8
0
  6
Continuous
 62
     7
370
    25
100
AcDbCircle
 10
158.8105259429955
 20
59.95947117175174
 30
0.0
 40
2.459999999999994
  0
CIRCLE
  5
30E
330
D6
100
AcDbEntity
  8
0
  6
Continuous
 62
     3
370
    25
100
AcDbCircle
 10
158.8105259429955
 20
59.95947117175174
 30
0.0
 40
3.0
  0
ENDBLK
  5
D8
330
D6
100
AcDbEntity
  8
0
100
AcDbBlockEnd
  0
BLOCK
  5
DA
330
D9
100
AcDbEntity
  8
0
100
AcDbBlockBegin
  2
DC_GROUP_AM30014_13
 70
     0
 10
0.0
 20
0.0
 30
0.0
  3
DC_GROUP_AM30014_13
  1

  0
LINE
  5
30F
330
D9
100
AcDbEntity
  8
0
  6
Continuous
 62
     3
370
    25
100
AcDbLine
 10
212.2237249283547
 20
64.78225515456973
 30
0.0
 11
208.2237249283547
 21
62.47285407781121
 31
0.0
  0
LINE
  5
310
330
D9
100
AcDbEntity
  8
0
  6
Continuous
 62
     3
370
    25
100
AcDbLine
 10
208.2237249283547
 20
62.47285407781121
 30
0.0
 11
208.2237249283547
 21
57.85405192429423
 31
0.0
  0
LINE
  5
311
330
D9
100
AcDbEntity
  8
0
  6
Continuous
 62
     3
370
    25
100
AcDbLine
 10
208.2237249283547
 20
57.85405192429423
 30
0.0
 11
212.2237249283547
 21
55.54465084753571
 31
0.0
  0
LINE
  5
312
330
D9
100
AcDbEntity
  8
0
  6
Continuous
 62
     3
370
    25
100
AcDbLine
 10
212.2237249283547
 20
55.54465084753571
 30
0.0
 11
216.2237249283547
 21
57.85405192429423
 31
0.0
  0
LINE
  5
313
330
D9
100
AcDbEntity
  8
0
  6
Continuous
 62
     3
370
    25
100
AcDbLine
 10
216.2237249283547
 20
57.85405192429423
 30
0.0
 11
216.2237249283547
 21
62.47285407781121
 31
0.0
  0
LINE
  5
314
330
D9
100
AcDbEntity
  8
0
  6
Continuous
 62
     3
370
    25
100
AcDbLine
 10
216.2237249283547
 20
62.47285407781121
 30
0.0
 11
212.2237249283547
 21
64.78225515456973
 31
0.0
  0
CIRCLE
  5
315
330
D9
100
AcDbEntity
  8
0
  6
Continuous
 62
     3
370
    25
100
AcDbCircle
 10
212.2237249283547
 20
60.16345300105272
 30
0.0
 40
4.0
  0
CIRCLE
  5
316
330
D9
100
AcDbEntity
  8
0
  6
Continuous
 62
     3
370
    25
100
AcDbCircle
 10
212.2237249283547
 20
60.16345300105272
 30
0.0
 40
4.600000000000001
  0
ENDBLK
  5
DB
330
D9
100
AcDbEntity
  8
0
100
AcDbBlockEnd
  0
BLOCK
  5
DD
330
DC
100
AcDbEntity
  8
0
100
AcDbBlockBegin
  2
DC_GROUP_AM30014_14
 70
     0
 10
0.0
 20
0.0
 30
0.0
  3
DC_GROUP_AM30014_14
  1

  0
LINE
  5
317
330
DC
100
AcDbEntity
  8
0
  6
Continuous
 62
     3
370
    25
100
AcDbLine
 10
285.3973269576364
 20
64.78225515456973
 30
0.0
 11
289.3973269576364
 21
62.47285407781121
 31
0.0
  0
LINE
  5
318
330
DC
100
AcDbEntity
  8
0
  6
Continuous
 62
     3
370
    25
100
AcDbLine
 10
289.3973269576364
 20
62.47285407781121
 30
0.0
 11
289.3973269576364
 21
57.85405192429423
 31
0.0
  0
LINE
  5
319
330
DC
100
AcDbEntity
  8
0
  6
Continuous
 62
     3
370
    25
100
AcDbLine
 10
289.3973269576364
 20
57.85405192429423
 30
0.0
 11
285.3973269576364
 21
55.54465084753571
 31
0.0
  0
LINE
  5
31A
330
DC
100
AcDbEntity
  8
0
  6
Continuous
 62
     3
370
    25
100
AcDbLine
 10
285.3973269576364
 20
55.54465084753571
 30
0.0
 11
281.3973269576364
 21
57.85405192429423
 31
0.0
  0
LINE
  5
31B
330
DC
100
AcDbEntity
  8
0
  6
Continuous
 62
     3
370
    25
100
AcDbLine
 10
281.3973269576364
 20
57.85405192429423
 30
0.0
 11
281.3973269576364
 21
62.47285407781121
 31
0.0
  0
LINE
  5
31C
330
DC
100
AcDbEntity
  8
0
  6
Continuous
 62
     3
370
    25
100
AcDbLine
 10
281.3973269576364
 20
62.47285407781121
 30
0.0
 11
285.3973269576364
 21
64.78225515456973
 31
0.0
  0
CIRCLE
  5
31D
330
DC
100
AcDbEntity
  8
0
  6
Continuous
 62
     3
370
    25
100
AcDbCircle
 10
285.3973269576364
 20
60.16345300105272
 30
0.0
 40
4.0
  0
CIRCLE
  5
31E
330
DC
100
AcDbEntity
  8
0
  6
Continuous
 62
     3
370
    25
100
AcDbCircle
 10
285.3973269576364
 20
60.16345300105272
 30
0.0
 40
4.600000000000001
  0
ENDBLK
  5
DE
330
DC
100
AcDbEntity
  8
0
100
AcDbBlockEnd
  0
ENDSEC
  0
SECTION
  2
ENTITIES
  0
TEXT
  5
320
330
1F
100
AcDbEntity
  8
Layer0015
 62
     6
100
AcDbText
 10
-25.17894736842106
 20
-117.9578947368421
 30
0.0
 40
25.6
  1
AM30014
 41
1.05
  7
dcStyle0
 72
     5
 11
154.021052631579
 21
-117.9578947368421
 31
0.0
100
AcDbText
  0
LINE
  5
321
330
1F
100
AcDbEntity
  8
0
  6
DASHED2
 62
     3
370
    25
100
AcDbLine
 10
-20.60905693708207
 20
71.95947117175174
 30
0.0
 11
-20.60905693708207
 21
67.95947117175174
 31
0.0
  0
LINE
  5
322
330
1F
100
AcDbEntity
  8
0
  6
DASHED2
 62
     3
370
    25
100
AcDbLine
 10
-24.60905693708207
 20
67.95947117175174
 30
0.0
 11
13.89094306291793
 21
67.95947117175174
 31
0.0
  0
LINE
  5
323
330
1F
100
AcDbEntity
  8
0
  6
DASHED2
 62
     3
370
    25
100
AcDbLine
 10
-24.60905693708207
 20
71.95947117175174
 30
0.0
 11
-24.60905693708207
 21
67.95947117175174
 31
0.0
  0
LINE
  5
324
330
1F
100
AcDbEntity
  8
0
  6
DASHED2
 62
     3
370
    25
100
AcDbLine
 10
173.8717548533448
 20
126.5917002277914
 30
0.0
 11
174.5795638672047
 21
125.8838912139317
 31
0.0
  0
LINE
  5
325
330
1F
100
AcDbEntity
  8
0
  6
DASHED2
 62
     3
370
    25
100
AcDbLine
 10
110.7465939691932
 20
27.25174316272879
 30
0.0
 11
107.2665054601365
 21
19.78866927107052
 31
0.0
  0
LINE
  5
326
330
1F
100
AcDbEntity
  8
0
  6
CENTER
 62
     3
370
    25
100
AcDbLine
 10
129.2105263157895
 20
25.89923790176968
 30
0.0
 11
129.2105263157895
 21
17.86995236277065
 31
0.0
  0
LINE
  5
327
330
1F
100
AcDbEntity
  8
0
  6
CENTER
 62
     3
370
    25
100
AcDbLine
 10
94.7288931860947
 20
59.95947117175186
 30
0.0
 11
167.4541625140756
 21
59.95947117175186
 31
0.0
  0
LINE
  5
328
330
1F
100
AcDbEntity
  8
0
  6
CENTER
 62
     3
370
    25
100
AcDbLine
 10
198.6133094607284
 20
110.1566876540188
 30
0.0
 11
182.5038796383344
 21
126.2661174764128
 31
0.0
  0
LINE
  5
329
330
1F
100
AcDbEntity
  8
0
  6
CENTER
 62
     3
370
    25
100
AcDbLine
 10
198.108054743036
 20
9.25699997179234
 30
0.0
 11
181.8547907257992
 21
-6.996264045444434
 31
0.0
  0
LINE
  5
32A
330
1F
100
AcDbEntity
  8
0
  6
CENTER
 62
     3
370
    25
100
AcDbLine
 10
297.7150697074199
 20
11.05492740732737
 30
0.0
 11
315.9820124524559
 21
-7.212015337708664
 31
0.0
  0
LINE
  5
32B
330
1F
100
AcDbEntity
  8
0
  6
CENTER
 62
     3
370
    25
100
AcDbLine
 10
298.0728201587845
 20
109.2217653875407
 30
0.0
 11
315.6205919296065
 21
126.7695371583627
 31
0.0
  0
LINE
  5
32C
330
1F
100
AcDbEntity
  8
0
  6
CENTER
 62
     3
370
    25
100
AcDbLine
 10
166.8105259429953
 20
59.95947117175186
 30
0.0
 11
350.9849094034478
 21
59.95947117175174
 31
0.0
  0
LINE
  5
32D
330
1F
100
AcDbEntity
  8
0
  6
CENTER
 62
     3
370
    25
100
AcDbLine
 10
248.8105259429955
 20
170.6771383682809
 30
0.0
 11
248.8105259429955
 21
-49.29417023051982
 31
0.0
  0
ARC
  5
32E
330
1F
100
AcDbEntity
  8
0
  6
CENTER
 62
     3
370
    25
100
AcDbCircle
 10
248.7237249283547
 20
60.16345300105272
 30
0.0
 40
36.5
100
AcDbArc
 50
165.3058731471132
 51
196.4014245425773
  0
ARC
  5
32F
330
1F
100
AcDbEntity
  8
0
  6
CENTER
 62
     3
370
    25
100
AcDbCircle
 10
248.8973269576364
 20
60.16345300105272
 30
0.0
 40
36.5
100
AcDbArc
 50
343.5985754574227
 51
14.69412685288684
  0
ARC
  5
330
330
1F
100
AcDbEntity
  8
0
  6
CENTER
 62
     3
370
    25
100
AcDbCircle
 10
248.8105259429955
 20
59.95947117175174
 30
0.0
 40
82.5
100
AcDbArc
 50
302.2537010543118
 51
328.1764212624078
  0
ARC
  5
331
330
1F
100
AcDbEntity
  8
0
  6
CENTER
 62
     3
370
    25
100
AcDbCircle
 10
248.8105259429955
 20
59.95947117175174
 30
0.0
 40
82.5
100
AcDbArc
 50
32.53141682137102
 51
77.69039033710256
  0
ARC
  5
332
330
1F
100
AcDbEntity
  8
0
  6
CENTER
 62
     3
370
    25
100
AcDbCircle
 10
248.8105259429955
 20
59.95947117175174
 30
0.0
 40
82.5
100
AcDbArc
 50
124.5608382863086
 51
145.9881732426698
  0
ARC
  5
333
330
1F
100
AcDbEntity
  8
0
  6
CENTER
 62
     3
370
    25
100
AcDbCircle
 10
248.8105259429955
 20
59.95947117175174
 30
0.0
 40
82.5
100
AcDbArc
 50
209.8777215241705
 51
258.0113028265856
  0
LINE
  5
334
330
1F
100
AcDbEntity
  8
0
  6
CENTER
 62
     3
370
    25
100
AcDbLine
 10
158.8105259429955
 20
66.06927644249853
 30
0.0
 11
158.8105259429955
 21
53.23732381705358
 31
0.0
  0
LINE
  5
335
330
1F
100
AcDbEntity
  8
0
  6
Continuous
 62
     6
370
    25
100
AcDbLine
 10
-35.60905693708207
 20
78.92965314845577
 30
0.0
 11
-35.60905693708207
 21
44.56713836059532
 31
0.0
  0
ARC
  5
336
330
1F
100
AcDbEntity
  8
0
  6
DASHED2
 62
     6
370
    25
100
AcDbCircle
 10
248.8105259429955
 20
59.95947117175172
 30
0.0
 40
83.1
100
AcDbArc
 50
12.30273886686363
 51
43.03078129776299
  0
LINE
  5
337
330
1F
100
AcDbEntity
  8
0
  6
Continuous
 62
     4
370
    25
100
AcDbLine
 10
13.89094306291793
 20
71.95947117175174
 30
0.0
 11
14.39094306291793
 21
71.45947117175174
 31
0.0
  0
LINE
  5
338
330
1F
100
AcDbEntity
  8
0
  6
Continuous
 62
     4
370
    25
100
AcDbLine
 10
13.89094306291793
 20
47.95947117175174
 30
0.0
 11
14.39094306291793
 21
48.45947117175174
 31
0.0
  0
LINE
  5
339
330
1F
100
AcDbEntity
  8
0
  6
DASHED2
 62
     4
370
    25
100
AcDbLine
 10
-203.2221464417194
 20
77.66617743410481
 30
0.0
 11
-139.2221464417193
 21
77.66617743410481
 31
0.0
  0
LINE
  5
33A
330
1F
100
AcDbEntity
  8
0
  6
DASHED2
 62
     4
370
    25
100
AcDbLine
 10
-139.2221464417193
 20
116.6661774341048
 30
0.0
 11
-203.2221464417194
 21
116.6661774341048
 31
0.0
  0
LINE
  5
33B
330
1F
100
AcDbEntity
  8
0
  6
DASHED2
 62
     4
370
    25
100
AcDbLine
 10
-139.2221464417193
 20
77.66617743410481
 30
0.0
 11
-139.2221464417193
 21
116.6661774341048
 31
0.0
  0
LINE
  5
33C
330
1F
100
AcDbEntity
  8
0
  6
DASHED2
 62
     4
370
    25
100
AcDbLine
 10
-203.2221464417194
 20
116.6661774341048
 30
0.0
 11
-203.2221464417194
 21
77.66617743410481
 31
0.0
  0
LINE
  5
33D
330
1F
100
AcDbEntity
  8
0
  6
Continuous
 62
     7
370
    25
100
AcDbLine
 10
-32.10385693708213
 20
71.95947117175174
 30
0.0
 11
13.89094306291793
 21
71.95947117175174
 31
0.0
  0
LINE
  5
33E
330
1F
100
AcDbEntity
  8
0
  6
Continuous
 62
     7
370
    25
100
AcDbLine
 10
-35.60905693708207
 20
72.45947117175174
 30
0.0
 11
-35.60905693708207
 21
59.95947117175174
 31
0.0
  0
LINE
  5
33F
330
1F
100
AcDbEntity
  8
0
  6
Continuous
 62
     7
370
    25
100
AcDbLine
 10
14.39094306291793
 20
74.95947117175174
 30
0.0
 11
14.39094306291793
 21
59.95947117175174
 31
0.0
  0
LINE
  5
340
330
1F
100
AcDbEntity
  8
0
  6
Continuous
 62
     7
370
    25
100
AcDbLine
 10
13.89094306291793
 20
71.95947117175174
 30
0.0
 11
13.89094306291793
 21
59.95947117175174
 31
0.0
  0
LINE
  5
341
330
1F
100
AcDbEntity
  8
0
  6
Continuous
 62
     7
370
    25
100
AcDbLine
 10
14.39094306291793
 20
48.45947117175174
 30
0.0
 11
14.39094306291793
 21
59.95947117175174
 31
0.0
  0
LINE
  5
342
330
1F
100
AcDbEntity
  8
0
  6
Continuous
 62
     7
370
    25
100
AcDbLine
 10
-32.10385693708213
 20
47.95947117175174
 30
0.0
 11
13.89094306291793
 21
47.95947117175174
 31
0.0
  0
LINE
  5
343
330
1F
100
AcDbEntity
  8
0
  6
Continuous
 62
     7
370
    25
100
AcDbLine
 10
13.89094306291793
 20
47.95947117175174
 30
0.0
 11
13.89094306291793
 21
59.95947117175174
 31
0.0
  0
LINE
  5
344
330
1F
100
AcDbEntity
  8
0
  6
Continuous
 62
     7
370
    25
100
AcDbLine
 10
-35.60905693708207
 20
47.45947117175174
 30
0.0
 11
-35.60905693708207
 21
59.95947117175174
 31
0.0
  0
LINE
  5
345
330
1F
100
AcDbEntity
  8
0
  6
Continuous
 62
     7
370
    25
100
AcDbLine
 10
-61.08752375434221
 20
-6.715528828248324
 30
0.0
 11
-50.89825693708224
 21
-6.715528828248324
 31
0.0
  0
LINE
  5
346
330
1F
100
AcDbEntity
  8
0
  6
Continuous
 62
     7
370
    25
100
AcDbLine
 10
-32.89125693708218
 20
-5.051828828248262
 30
0.0
 11
-35.20265693708211
 21
-5.051828828248262
 31
0.0
  0
LINE
  5
347
330
1F
100
AcDbEntity
  8
0
  6
Continuous
 62
     7
370
    25
100
AcDbLine
 10
-71.75676839244227
 20
4.879338497591704
 30
0.0
 11
-67.91625693708215
 21
4.879338497591704
 31
0.0
  0
LINE
  5
348
330
1F
100
AcDbEntity
  8
0
  6
Continuous
 62
     7
370
    25
100
AcDbLine
 10
-67.74005693708216
 20
109.6294038459118
 30
0.0
 11
-67.81625693708213
 21
109.5532038459117
 31
0.0
  0
LINE
  5
349
330
1F
100
AcDbEntity
  8
0
  6
Continuous
 62
     7
370
    25
100
AcDbLine
 10
-67.84005693708218
 20
10.28953849759174
 30
0.0
 11
-67.91625693708215
 21
10.36573849759171
 31
0.0
  0
LINE
  5
34A
330
1F
100
AcDbEntity
  8
0
  6
Continuous
 62
     7
370
    25
100
AcDbLine
 10
-71.7584436342022
 20
115.0396038459118
 30
0.0
 11
-67.91625693708215
 21
115.0396038459118
 31
0.0
  0
LINE
  5
34B
330
1F
100
AcDbEntity
  8
0
  6
Continuous
 62
     7
370
    25
100
AcDbLine
 10
-32.89125693708218
 20
124.9707711717517
 30
0.0
 11
-35.20265693708211
 21
124.9707711717517
 31
0.0
  0
LINE
  5
34C
330
1F
100
AcDbEntity
  8
0
  6
Continuous
 62
     7
370
    25
100
AcDbLine
 10
-50.89825693708224
 20
126.6344711717517
 30
0.0
 11
-61.08752375434221
 21
126.6344711717517
 31
0.0
  0
LINE
  5
34D
330
1F
100
AcDbEntity
  8
0
  6
Continuous
 62
     7
370
    25
100
AcDbLine
 10
-82.1402569370822
 20
142.5094711717517
 30
0.0
 11
-82.1402569370822
 21
-22.43584053835113
 31
0.0
  0
LINE
  5
34E
330
1F
100
AcDbEntity
  8
0
  6
Continuous
 62
     7
370
    25
100
AcDbLine
 10
-67.91625693708215
 20
4.879338497591704
 30
0.0
 11
-67.91625693708215
 21
10.36573849759171
 31
0.0
  0
LINE
  5
34F
330
1F
100
AcDbEntity
  8
0
  6
Continuous
 62
     7
370
    25
100
AcDbLine
 10
-67.91625693708215
 20
109.5532038459117
 30
0.0
 11
-67.91625693708215
 21
115.0396038459118
 31
0.0
  0
LINE
  5
350
330
1F
100
AcDbEntity
  8
0
  6
Continuous
 62
     7
370
    25
100
AcDbLine
 10
-67.84005693708218
 20
4.955538497591675
 30
0.0
 11
-67.84005693708218
 21
10.28953849759174
 31
0.0
  0
LINE
  5
351
330
1F
100
AcDbEntity
  8
0
  6
Continuous
 62
     7
370
    25
100
AcDbLine
 10
-67.84005693708218
 20
109.6294038459118
 30
0.0
 11
-67.84005693708218
 21
114.9634038459117
 31
0.0
  0
LINE
  5
352
330
1F
100
AcDbEntity
  8
0
  6
Continuous
 62
     7
370
    25
100
AcDbLine
 10
-82.1402569370822
 20
142.5094711717517
 30
0.0
 11
-79.69799011982218
 21
142.5094711717517
 31
0.0
  0
LINE
  5
353
330
1F
100
AcDbEntity
  8
0
  6
Continuous
 62
     7
370
    25
100
AcDbLine
 10
-67.84005693708218
 20
4.955538497591675
 30
0.0
 11
-67.91625693708215
 21
4.879338497591704
 31
0.0
  0
LINE
  5
354
330
1F
100
AcDbEntity
  8
0
  6
Continuous
 62
     7
370
    25
100
AcDbLine
 10
-67.84005693708218
 20
114.9634038459117
 30
0.0
 11
-67.91625693708215
 21
115.0396038459118
 31
0.0
  0
LINE
  5
355
330
1F
100
AcDbEntity
  8
0
  6
Continuous
 62
     7
370
    25
100
AcDbLine
 10
-47.5962569370821
 20
-38.82417251278829
 30
0.0
 11
-47.5962569370821
 21
158.7431148562918
 31
0.0
  0
LINE
  5
356
330
1F
100
AcDbEntity
  8
0
  6
Continuous
 62
     7
370
    25
100
AcDbLine
 10
-69.74312352718209
 20
-14.00339542088827
 30
0.0
 11
-63.42239034444208
 21
-7.682662235608262
 31
0.0
  0
LINE
  5
357
330
1F
100
AcDbEntity
  8
0
  6
Continuous
 62
     7
370
    25
100
AcDbLine
 10
-82.1402569370822
 20
-21.29264322742833
 30
0.0
 11
-82.92765693708213
 21
-21.74724882824827
 31
0.0
  0
LINE
  5
358
330
1F
100
AcDbEntity
  8
0
  6
Continuous
 62
     7
370
    25
100
AcDbLine
 10
-82.1402569370822
 20
141.2115855709317
 30
0.0
 11
-82.92765693708213
 21
141.6661911717516
 31
0.0
  0
LINE
  5
359
330
1F
100
AcDbEntity
  8
0
  6
Continuous
 62
     7
370
    25
100
AcDbLine
 10
-77.36312352718221
 20
141.5423377643916
 30
0.0
 11
-63.42239034444208
 21
127.6016045791118
 31
0.0
  0
LINE
  5
35A
330
1F
100
AcDbEntity
  8
0
  6
Continuous
 62
     7
370
    25
100
AcDbLine
 10
-35.60905693708207
 20
159.9962673283916
 30
0.0
 11
-35.60905693708207
 21
-40.07732498488824
 31
0.0
  0
LINE
  5
35B
330
1F
100
AcDbEntity
  8
0
  6
Continuous
 62
     7
370
    25
100
AcDbLine
 10
-32.89125693708218
 20
124.9707711717517
 30
0.0
 11
-32.89125693708218
 21
-5.051828828248262
 31
0.0
  0
LINE
  5
35C
330
1F
100
AcDbEntity
  8
0
  6
Continuous
 62
     7
370
    25
100
AcDbLine
 10
-32.10385693708213
 20
124.1833711717517
 30
0.0
 11
-32.10385693708213
 21
-4.264428828248327
 31
0.0
  0
LINE
  5
35D
330
1F
100
AcDbEntity
  8
0
  6
Continuous
 62
     7
370
    25
100
AcDbLine
 10
-32.10385693708213
 20
-4.264428828248327
 30
0.0
 11
-32.89125693708218
 21
-5.051828828248262
 31
0.0
  0
LINE
  5
35E
330
1F
100
AcDbEntity
  8
0
  6
Continuous
 62
     7
370
    25
100
AcDbLine
 10
-32.89125693708218
 20
124.9707711717517
 30
0.0
 11
-32.10385693708213
 21
124.1833711717517
 31
0.0
  0
LINE
  5
35F
330
1F
100
AcDbEntity
  8
0
  6
Continuous
 62
     7
370
    25
100
AcDbLine
 10
-77.06025693708216
 20
-22.59052882824832
 30
0.0
 11
-77.17489601692216
 21
-22.58390618718826
 31
0.0
  0
ARC
  5
360
330
1F
100
AcDbEntity
  8
0
  6
Continuous
 62
     7
370
    25
100
AcDbCircle
 10
-71.2262185086621
 20
9.996586843211759
 30
0.0
 40
3.815499287959987
100
AcDbArc
 50
332.7561430954001
 51
333.7564419308001
  0
ARC
  5
361
330
1F
100
AcDbEntity
  8
0
  6
Continuous
 62
     7
370
    25
100
AcDbCircle
 10
-79.69799011982218
 20
139.2074711717517
 30
0.0
 40
3.302000001643332
100
AcDbArc
 50
45.0
 51
90.0
  0
ARC
  5
362
330
1F
100
AcDbEntity
  8
0
  6
Continuous
 62
     7
370
    25
100
AcDbCircle
 10
-61.08752375434221
 20
129.9364711717517
 30
0.0
 40
3.301999999999975
100
AcDbArc
 50
225.0000000311997
 51
270.0
  0
ARC
  5
363
330
1F
100
AcDbEntity
  8
0
  6
Continuous
 62
     7
370
    25
100
AcDbCircle
 10
-61.08752375434221
 20
-10.01752882824823
 30
0.0
 40
3.301999999999975
100
AcDbArc
 50
90.0
 51
134.9999999687998
  0
ARC
  5
364
330
1F
100
AcDbEntity
  8
0
  6
Continuous
 62
     7
370
    25
100
AcDbCircle
 10
-50.89825693708224
 20
129.9364711717517
 30
0.0
 40
3.302000000000066
100
AcDbArc
 50
270.0
 51
0.0
  0
ARC
  5
365
330
1F
100
AcDbEntity
  8
0
  6
Continuous
 62
     7
370
    25
100
AcDbCircle
 10
-50.89825693708224
 20
-10.01752882824823
 30
0.0
 40
3.302000000000066
100
AcDbArc
 50
0.0
 51
90.0
  0
ARC
  5
366
330
1F
100
AcDbEntity
  8
0
  6
Continuous
 62
     7
370
    25
100
AcDbCircle
 10
-46.07225693708222
 20
-38.82417251278829
 30
0.0
 40
1.524000000038191
100
AcDbArc
 50
180.0
 51
271.5000000014001
  0
ARC
  5
367
330
1F
100
AcDbEntity
  8
0
  6
Continuous
 62
     7
370
    25
100
AcDbCircle
 10
-46.07225693708222
 20
158.7431148562918
 30
0.0
 40
1.524000000038191
100
AcDbArc
 50
88.49999999859992
 51
180.0
  0
ARC
  5
368
330
1F
100
AcDbEntity
  8
0
  6
Continuous
 62
     7
370
    25
100
AcDbCircle
 10
-35.20265693708211
 20
-5.458228828248338
 30
0.0
 40
0.4064000000000457
100
AcDbArc
 50
90.0
 51
180.0
  0
ARC
  5
369
330
1F
100
AcDbEntity
  8
0
  6
Continuous
 62
     7
370
    25
100
AcDbCircle
 10
-35.20265693708211
 20
125.3771711717517
 30
0.0
 40
0.4064000000000457
100
AcDbArc
 50
180.0
 51
270.0
  0
LINE
  5
36A
330
1F
100
AcDbEntity
  8
0
  6
Continuous
 62
     7
370
    25
100
AcDbLine
 10
-61.08752375434221
 20
126.6344711717517
 30
0.0
 11
-61.08752375434221
 21
-6.715528828248324
 31
0.0
  0
LINE
  5
36B
330
1F
100
AcDbEntity
  8
0
  6
Continuous
 62
     7
370
    25
100
AcDbLine
 10
-46.03236326782223
 20
160.2665926195916
 30
0.0
 11
-35.60905693708207
 21
159.9962673283916
 31
0.0
  0
LINE
  5
36C
330
1F
100
AcDbEntity
  8
0
  6
Continuous
 62
     7
370
    25
100
AcDbLine
 10
-46.03236326782269
 20
-40.34765027608816
 30
0.0
 11
-35.60905693708207
 21
-40.07732498488824
 31
0.0
  0
LINE
  5
36D
330
1F
100
AcDbEntity
  8
0
  6
Continuous
 62
     7
370
    25
100
AcDbLine
 10
-77.36312352718221
 20
-21.62339542088816
 30
0.0
 11
-63.42239034444208
 21
-7.682662235608262
 31
0.0
  0
ARC
  5
36E
330
1F
100
AcDbEntity
  8
0
  6
Continuous
 62
     7
370
    25
100
AcDbCircle
 10
-61.08752375434221
 20
-10.01752882824823
 30
0.0
 40
3.301999999999975
100
AcDbArc
 50
90.0
 51
134.9999999688003
  0
ARC
  5
36F
330
1F
100
AcDbEntity
  8
0
  6
Continuous
 62
     7
370
    25
100
AcDbCircle
 10
-79.69799011982218
 20
-19.28852882824819
 30
0.0
 40
3.302000001643332
100
AcDbArc
 50
270.0
 51
315.0
  0
LINE
  5
370
330
1F
100
AcDbEntity
  8
0
  6
Continuous
 62
     7
370
    25
100
AcDbLine
 10
-82.1402569370822
 20
-22.59052882824821
 30
0.0
 11
-79.69799011982218
 21
-22.59052882824821
 31
0.0
  0
LINE
  5
371
330
1F
100
AcDbEntity
  8
0
  6
Continuous
 62
     7
370
    25
100
AcDbLine
 10
-77.36312352718221
 20
-21.62339542088816
 30
0.0
 11
-63.42239034444208
 21
-7.682662235608262
 31
0.0
  0
LINE
  5
372
330
1F
100
AcDbEntity
  8
0
  6
Continuous
 62
     7
370
    25
100
AcDbLine
 10
-77.36312352718221
 20
141.5423377643916
 30
0.0
 11
-77.36312352718221
 21
-21.62339542088816
 31
0.0
  0
LINE
  5
373
330
1F
100
AcDbEntity
  8
0
  6
Continuous
 62
     7
370
    25
100
AcDbLine
 10
-257.1402569370822
 20
150.2096234997937
 30
0.0
 11
-301.3322334065895
 21
149.4382496864518
 31
0.0
  0
LINE
  5
374
330
1F
100
AcDbEntity
  8
0
  6
Continuous
 62
     7
370
    25
100
AcDbLine
 10
-311.1577093434016
 20
139.5104390585072
 30
0.0
 11
-311.1577093434016
 21
122.31025223111
 31
0.0
  0
LINE
  5
375
330
1F
100
AcDbEntity
  8
0
  6
Continuous
 62
     7
370
    25
100
AcDbLine
 10
-311.7385781528446
 20
121.233385159948
 30
0.0
 11
-311.3768405339586
 21
121.6855571835555
 31
0.0
  0
ARC
  5
376
330
1F
100
AcDbEntity
  8
0
  6
Continuous
 62
     7
370
    25
100
AcDbCircle
 10
-312.1577093434016
 20
122.31025223111
 30
0.0
 40
1.0
100
AcDbArc
 50
321.34019174591
 51
359.9999999999999
  0
LINE
  5
377
330
1F
100
AcDbEntity
  8
0
  6
Continuous
 62
     7
370
    25
100
AcDbLine
 10
-311.7385781528446
 20
-1.314442816444455
 30
0.0
 11
-311.3768405339586
 21
-1.766614840052029
 31
0.0
  0
ARC
  5
378
330
1F
100
AcDbEntity
  8
0
  6
Continuous
 62
     7
370
    25
100
AcDbCircle
 10
-312.1577093434016
 20
-2.391309887606468
 30
0.0
 40
1.0
100
AcDbArc
 50
0.000000000000048
 51
38.65980825408996
  0
LINE
  5
379
330
1F
100
AcDbEntity
  8
0
  6
Continuous
 62
     7
370
    25
100
AcDbLine
 10
-257.1577093434017
 20
-23.54037652340676
 30
0.0
 11
-301.3322334065895
 21
-22.76930734294828
 31
0.0
  0
LINE
  5
37A
330
1F
100
AcDbEntity
  8
0
  6
Continuous
 62
     7
370
    25
100
AcDbLine
 10
-311.1577093434016
 20
-13.61772193732779
 30
0.0
 11
-311.1577093434016
 21
-2.391309887606468
 31
0.0
  0
ARC
  5
37B
330
1F
100
AcDbEntity
  8
0
  6
Continuous
 62
     7
370
    25
100
AcDbCircle
 10
-301.1577093434016
 20
139.4397727348671
 30
0.0
 40
10.0
100
AcDbArc
 50
90.99999999320869
 51
180.0
  0
ARC
  5
37C
330
1F
100
AcDbEntity
  8
0
  6
Continuous
 62
     7
370
    25
100
AcDbCircle
 10
-301.1577093434016
 20
-12.77083039136369
 30
0.0
 40
10.0
100
AcDbArc
 50
179.9999999999999
 51
269.0000000067913
  0
LINE
  5
37D
330
1F
100
AcDbEntity
  8
0
  6
Continuous
 62
     7
370
    25
100
AcDbLine
 10
-257.1402569370824
 20
126.5917002277915
 30
0.0
 11
-257.1402569370822
 21
150.2096234997937
 31
0.0
  0
LINE
  5
37E
330
1F
100
AcDbEntity
  8
0
  6
Continuous
 62
     7
370
    25
100
AcDbLine
 10
-257.1402569370822
 20
-23.54037652340676
 30
0.0
 11
-257.1402569370822
 21
-6.672757883539276
 31
0.0
  0
LINE
  5
37F
330
1F
100
AcDbEntity
  8
0
  6
Continuous
 62
     7
370
    25
100
AcDbLine
 10
-257.1402569370825
 20
103.1668463586981
 30
0.0
 11
-257.1402569370824
 21
120.9348459729831
 31
0.0
  0
LINE
  5
380
330
1F
100
AcDbEntity
  8
0
  6
Continuous
 62
     7
370
    25
100
AcDbLine
 10
-257.1402569370822
 20
-1.015903628730911
 30
0.0
 11
-257.1402569370822
 21
15.14878398480508
 31
0.0
  0
LINE
  5
381
330
1F
100
AcDbEntity
  8
0
  6
Continuous
 62
     7
370
    25
100
AcDbLine
 10
109.8989909668395
 20
20.2819285421397
 30
0.0
 11
149.4105263157893
 21
20.28192854213924
 31
0.0
  0
ARC
  5
382
330
1F
100
AcDbEntity
  8
0
  6
Continuous
 62
     7
370
    25
100
AcDbCircle
 10
149.4105263157895
 20
97.0131707197211
 30
0.0
 40
2.8
100
AcDbArc
 50
0.0
 51
55.93758673054656
  0
LINE
  5
383
330
1F
100
AcDbEntity
  8
0
  6
Continuous
 62
     7
370
    25
100
AcDbLine
 10
152.2105263157895
 20
97.0131707197211
 30
0.0
 11
152.2105263157895
 21
85.81367918560889
 31
0.0
  0
LINE
  5
384
330
1F
100
AcDbEntity
  8
0
  6
Continuous
 62
     7
370
    25
100
AcDbLine
 10
152.2105263157895
 20
34.10526315789471
 30
0.0
 11
152.2105263157895
 21
23.0819285421392
 31
0.0
  0
ARC
  5
385
330
1F
100
AcDbEntity
  8
0
  6
Continuous
 62
     7
370
    25
100
AcDbCircle
 10
149.4105263157895
 20
23.0819285421392
 30
0.0
 40
2.8
100
AcDbArc
 50
269.9999999999977
 51
0.0
  0
LINE
  5
386
330
1F
100
AcDbEntity
  8
0
  6
Continuous
 62
     7
370
    25
100
AcDbLine
 10
111.8591143186756
 20
15.44034465212306
 30
0.0
 11
112.1972093186756
 21
16.16539065212308
 31
0.0
  0
ARC
  5
387
330
1F
100
AcDbEntity
  8
0
  6
Continuous
 62
     7
370
    25
100
AcDbCircle
 10
109.4162395269731
 20
22.97906790476546
 30
0.0
 40
4.231965993664435
100
AcDbArc
 50
120.5290752803827
 51
190.0282568093395
  0
LINE
  5
388
330
1F
100
AcDbEntity
  8
0
  6
Continuous
 62
     7
370
    25
100
AcDbLine
 10
107.2665043186756
 20
22.15486840635234
 30
0.0
 11
106.3601976730998
 21
20.21128753281133
 31
0.0
  0
CIRCLE
  5
389
330
1F
100
AcDbEntity
  8
0
  6
Continuous
 62
     7
370
    25
100
AcDbCircle
 10
248.8105259429955
 20
59.95947117175174
 30
0.0
 40
65.0
  0
CIRCLE
  5
38A
330
1F
100
AcDbEntity
  8
0
  6
Continuous
 62
     7
370
    25
100
AcDbCircle
 10
307.1468353908857
 20
118.2957806196419
 30
0.0
 40
6.0
  0
CIRCLE
  5
38B
330
1F
100
AcDbEntity
  8
0
  6
Continuous
 62
     7
370
    25
100
AcDbCircle
 10
190.4742164951053
 20
1.623161723861614
 30
0.0
 40
6.0
  0
CIRCLE
  5
38C
330
1F
100
AcDbEntity
  8
0
  6
Continuous
 62
     7
370
    25
100
AcDbCircle
 10
190.4742164951053
 20
118.2957806196419
 30
0.0
 40
6.0
  0
CIRCLE
  5
38D
330
1F
100
AcDbEntity
  8
0
  6
Continuous
 62
     7
370
    25
100
AcDbCircle
 10
307.1468353908857
 20
1.623161723861614
 30
0.0
 40
6.0
  0
CIRCLE
  5
38E
330
1F
100
AcDbEntity
  8
0
  6
Continuous
 62
     7
370
    25
100
AcDbCircle
 10
248.8105259429955
 20
59.95947117175174
 30
0.0
 40
60.00000000000001
  0
LINE
  5
38F
330
1F
100
AcDbEntity
  8
0
  6
Continuous
 62
     7
370
    25
100
AcDbLine
 10
244.7232249283547
 20
75.14921300105269
 30
0.0
 11
244.7232249283547
 21
68.14921300105269
 31
0.0
  0
LINE
  5
390
330
1F
100
AcDbEntity
  8
0
  6
Continuous
 62
     7
370
    25
100
AcDbLine
 10
252.7242249283547
 20
75.14921300105271
 30
0.0
 11
252.7242249283547
 21
68.14921300105269
 31
0.0
  0
LINE
  5
391
330
1F
100
AcDbEntity
  8
0
  6
Continuous
 62
     7
370
    25
100
AcDbLine
 10
252.7242249283547
 20
68.14921300105269
 30
0.0
 11
244.7232249283547
 21
68.14921300105269
 31
0.0
  0
LINE
  5
392
330
1F
100
AcDbEntity
  8
0
  6
Continuous
 62
     7
370
    25
100
AcDbLine
 10
252.7242249283547
 20
75.14921300105271
 30
0.0
 11
244.7232249283547
 21
75.14921300105269
 31
0.0
  0
ARC
  5
393
330
1F
100
AcDbEntity
  8
0
  6
Continuous
 62
     7
370
    25
100
AcDbCircle
 10
248.7237249283547
 20
60.16345300105272
 30
0.0
 40
12.00404
100
AcDbArc
 50
109.4669343777736
 51
70.53306562222645
  0
ARC
  5
394
330
1F
100
AcDbEntity
  8
0
  6
Continuous
 62
     7
370
    25
100
AcDbCircle
 10
248.8105259429955
 20
59.95947117175174
 30
0.0
 40
12.7
100
AcDbArc
 50
108.7739176569332
 51
72.05130385578207
  0
LINE
  5
395
330
1F
100
AcDbEntity
  8
0
  6
Continuous
 62
     7
370
    25
100
AcDbLine
 10
-311.9577093434016
 20
120.6086901123935
 30
0.0
 11
-311.9577093434016
 21
59.95947117175174
 31
0.0
  0
ARC
  5
396
330
1F
100
AcDbEntity
  8
0
  6
Continuous
 62
     7
370
    25
100
AcDbCircle
 10
-310.9577093434016
 20
120.6086901123935
 30
0.0
 40
1.0
100
AcDbArc
 50
141.3401917459101
 51
180.0
  0
LINE
  5
397
330
1F
100
AcDbEntity
  8
0
  6
Continuous
 62
     7
370
    25
100
AcDbLine
 10
-311.9577093434016
 20
-0.6897477688900437
 30
0.0
 11
-311.9577093434016
 21
59.95947117175174
 31
0.0
  0
ARC
  5
398
330
1F
100
AcDbEntity
  8
0
  6
Continuous
 62
     7
370
    25
100
AcDbCircle
 10
-310.9577093434016
 20
-0.6897477688900437
 30
0.0
 40
1.0
100
AcDbArc
 50
180.0
 51
218.65980825409
  0
CIRCLE
  5
399
330
1F
100
AcDbEntity
  8
0
  6
Continuous
 62
     7
370
    25
100
AcDbCircle
 10
248.8105259429955
 20
59.95947117175174
 30
0.0
 40
100.0
  0
CIRCLE
  5
39A
330
1F
100
AcDbEntity
  8
0
  6
Continuous
 62
     7
370
    25
100
AcDbCircle
 10
248.8105259429955
 20
59.95947117175174
 30
0.0
 40
100.0
  0
LINE
  5
39B
330
1F
100
AcDbEntity
  8
0
  6
DASHED
 62
     7
370
    25
100
AcDbLine
 10
-67.84005693708218
 20
7.432038497591662
 30
0.0
 11
-71.51281581710214
 21
7.432038497591662
 31
0.0
  0
LINE
  5
39C
330
1F
100
AcDbEntity
  8
0
  6
DASHED
 62
     7
370
    25
100
AcDbLine
 10
-67.84005693708218
 20
7.813038497591634
 30
0.0
 11
-71.24452947280213
 21
7.813038497591634
 31
0.0
  0
LINE
  5
39D
330
1F
100
AcDbEntity
  8
0
  6
DASHED
 62
     7
370
    25
100
AcDbLine
 10
-67.84005693708218
 20
112.1059038459117
 30
0.0
 11
-71.24514309870221
 21
112.1059038459117
 31
0.0
  0
LINE
  5
39E
330
1F
100
AcDbEntity
  8
0
  6
DASHED
 62
     7
370
    25
100
AcDbLine
 10
-67.84005693708218
 20
112.4869038459117
 30
0.0
 11
-71.51433110744222
 21
112.4869038459117
 31
0.0
  0
ARC
  5
39F
330
1F
100
AcDbEntity
  8
0
  6
DASHED
 62
     7
370
    25
100
AcDbCircle
 10
-67.88234043646219
 20
8.894403246211738
 30
0.0
 40
1.471333298120005
100
AcDbArc
 50
90.27366205679971
 51
91.28000719250055
  0
ARC
  5
3A0
330
1F
100
AcDbEntity
  8
0
  6
DASHED
 62
     7
370
    25
100
AcDbCircle
 10
-67.78327538506221
 20
111.0240738531117
 30
0.0
 40
1.47089401528001
100
AcDbArc
 50
268.7597187791007
 51
269.7633700897995
  0
LINE
  5
3A1
330
1F
100
AcDbEntity
  8
DEFAULT_3
  6
Continuous
 62
     7
370
    25
100
AcDbLine
 10
-257.1402569370822
 20
-21.64052882824825
 30
0.0
 11
-82.1402569370822
 21
-21.64052882824825
 31
0.0
  0
LINE
  5
3A2
330
1F
100
AcDbEntity
  8
DEFAULT_1
  6
CENTER
 62
     3
370
    25
100
AcDbLine
 10
-201.140257437082
 20
27.58682008695277
 30
0.0
 11
-201.140257437082
 21
18.65141320870472
 31
0.0
  0
LINE
  5
3A3
330
1F
100
AcDbEntity
  8
DEFAULT_1
  6
CENTER
 62
     3
370
    25
100
AcDbLine
 10
-222.140257437082
 20
109.3894056104399
 30
0.0
 11
-222.140257437082
 21
5.849568955193575
 31
0.0
  0
LINE
  5
3A4
330
1F
100
AcDbEntity
  8
DEFAULT_1
  6
CENTER
 62
     3
370
    25
100
AcDbLine
 10
-206.5402574370819
 20
22.86021927712559
 30
0.0
 11
-195.7402574370819
 21
22.86021927712559
 31
0.0
  0
LINE
  5
3A5
330
1F
100
AcDbEntity
  8
DEFAULT_1
  6
CENTER
 62
     3
370
    25
100
AcDbLine
 10
-201.140257437082
 20
24.83121689507666
 30
0.0
 11
-201.140257437082
 21
16.38314116493697
 31
0.0
  0
LINE
  5
3A6
330
1F
100
AcDbEntity
  8
DEFAULT_1
  6
CENTER
 62
     3
370
    25
100
AcDbLine
 10
103.9696471098945
 20
25.51885557328754
 30
0.0
 11
113.4039938205252
 21
21.11954761870871
 31
0.0
  0
LINE
  5
3A7
330
1F
100
AcDbEntity
  8
DEFAULT_1
  6
CENTER
 62
     3
370
    25
100
AcDbLine
 10
103.9696471098943
 20
25.51885557328742
 30
0.0
 11
112.6495433186755
 21
21.4713536521231
 31
0.0
  0
LINE
  5
3A8
330
1F
100
AcDbEntity
  8
DEFAULT_1
  6
CENTER
 62
     3
370
    25
100
AcDbLine
 10
-326.7553450303592
 20
59.95947117175174
 30
0.0
 11
21.07493312683494
 21
59.95947117175174
 31
0.0
  0
CIRCLE
  5
3A9
330
1F
100
AcDbEntity
  8
DEFAULT_1
  6
Continuous
 62
     7
370
    25
100
AcDbCircle
 10
-201.140257437082
 20
22.86021927712559
 30
0.0
 40
4.5
  0
ARC
  5
3AA
330
1F
100
AcDbEntity
  8
DEFAULT_1
  6
Continuous
 62
     7
370
    25
100
AcDbCircle
 10
-203.5402574370819
 20
25.26021927712557
 30
0.0
 40
2.064
100
AcDbArc
 50
270.0
 51
0.0
  0
ARC
  5
3AB
330
1F
100
AcDbEntity
  8
DEFAULT_1
  6
Continuous
 62
     7
370
    25
100
AcDbCircle
 10
-198.7402574370819
 20
25.26021927712557
 30
0.0
 40
2.064
100
AcDbArc
 50
180.0
 51
270.0
  0
ARC
  5
3AC
330
1F
100
AcDbEntity
  8
DEFAULT_1
  6
Continuous
 62
     7
370
    25
100
AcDbCircle
 10
-198.7402574370819
 20
20.46021927712556
 30
0.0
 40
2.064
100
AcDbArc
 50
90.0
 51
180.0
  0
ARC
  5
3AD
330
1F
100
AcDbEntity
  8
DEFAULT_1
  6
Continuous
 62
     7
370
    25
100
AcDbCircle
 10
-203.5402574370819
 20
20.46021927712556
 30
0.0
 40
2.064
100
AcDbArc
 50
0.0
 51
90.0
  0
LINE
  5
3AE
330
1F
100
AcDbEntity
  8
DEFAULT_1
  6
Continuous
 62
     7
370
    25
100
AcDbLine
 10
-201.476257437082
 20
25.26021927712557
 30
0.0
 11
-200.804257437082
 21
25.26021927712557
 31
0.0
  0
LINE
  5
3AF
330
1F
100
AcDbEntity
  8
DEFAULT_1
  6
Continuous
 62
     7
370
    25
100
AcDbLine
 10
-198.7402574370819
 20
23.19621927712561
 30
0.0
 11
-198.7402574370819
 21
22.52421927712558
 31
0.0
  0
LINE
  5
3B0
330
1F
100
AcDbEntity
  8
DEFAULT_1
  6
Continuous
 62
     7
370
    25
100
AcDbLine
 10
-200.804257437082
 20
20.46021927712556
 30
0.0
 11
-201.476257437082
 21
20.46021927712556
 31
0.0
  0
LINE
  5
3B1
330
1F
100
AcDbEntity
  8
DEFAULT_1
  6
Continuous
 62
     7
370
    25
100
AcDbLine
 10
-203.5402574370819
 20
23.19621927712561
 30
0.0
 11
-203.5402574370819
 21
22.52421927712558
 31
0.0
  0
ARC
  5
3B2
330
1F
100
AcDbEntity
  8
DEFAULT_1
  6
Continuous
 62
     7
370
    25
100
AcDbCircle
 10
-190.640257437082
 20
23.44034617175149
 30
0.0
 40
9.0
100
AcDbArc
 50
270.0000009999999
 51
0.0000009999999785
  0
ARC
  5
3B3
330
1F
100
AcDbEntity
  8
DEFAULT_1
  6
Continuous
 62
     7
370
    25
100
AcDbCircle
 10
-253.6402574370822
 20
23.44034617175149
 30
0.0
 40
9.0
100
AcDbArc
 50
180.000001
 51
270.0000009999999
  0
ARC
  5
3B4
330
1F
100
AcDbEntity
  8
DEFAULT_1
  6
Continuous
 62
     7
370
    25
100
AcDbCircle
 10
-253.6402574370822
 20
94.87528417175182
 30
0.0
 40
9.0
100
AcDbArc
 50
90.00000099999997
 51
180.000001
  0
ARC
  5
3B5
330
1F
100
AcDbEntity
  8
DEFAULT_1
  6
Continuous
 62
     7
370
    25
100
AcDbCircle
 10
-190.640257437082
 20
94.87528417175182
 30
0.0
 40
9.0
100
AcDbArc
 50
0.0000009999999531
 51
90.00000099999997
  0
LINE
  5
3B6
330
1F
100
AcDbEntity
  8
DEFAULT_1
  6
Continuous
 62
     7
370
    25
100
AcDbLine
 10
-181.640257437082
 20
23.44034617175149
 30
0.0
 11
-181.640257437082
 21
94.87528317175193
 31
0.0
  0
LINE
  5
3B7
330
1F
100
AcDbEntity
  8
DEFAULT_1
  6
Continuous
 62
     7
370
    25
100
AcDbLine
 10
-253.6402574370822
 20
103.8752841717518
 30
0.0
 11
-190.640257437082
 21
103.8752841717518
 31
0.0
  0
ARC
  5
3B8
330
1F
100
AcDbEntity
  8
DEFAULT_1
  6
Continuous
 62
     7
370
    25
100
AcDbCircle
 10
-191.140257437082
 20
24.97609617175149
 30
0.0
 40
8.0
100
AcDbArc
 50
270.0000009999998
 51
0.0000010000001821
  0
ARC
  5
3B9
330
1F
100
AcDbEntity
  8
DEFAULT_1
  6
Continuous
 62
     7
370
    25
100
AcDbCircle
 10
-253.1402574370822
 20
24.97609617175149
 30
0.0
 40
8.0
100
AcDbArc
 50
180.0000009999998
 51
270.0000009999998
  0
ARC
  5
3BA
330
1F
100
AcDbEntity
  8
DEFAULT_1
  6
Continuous
 62
     7
370
    25
100
AcDbCircle
 10
-253.1402574370822
 20
94.48534617175156
 30
0.0
 40
8.0
100
AcDbArc
 50
90.00000099999978
 51
180.000001
  0
ARC
  5
3BB
330
1F
100
AcDbEntity
  8
DEFAULT_1
  6
Continuous
 62
     7
370
    25
100
AcDbCircle
 10
-191.140257437082
 20
94.48534617175156
 30
0.0
 40
8.0
100
AcDbArc
 50
0.0000009999999785
 51
90.00000099999978
  0
ARC
  5
3BC
330
1F
100
AcDbEntity
  8
DEFAULT_1
  6
Continuous
 62
     7
370
    25
100
AcDbCircle
 10
-189.3673194370819
 20
24.64022117175173
 30
0.0
 40
6.0
100
AcDbArc
 50
270.0000010000003
 51
2.127563000000181
  0
ARC
  5
3BD
330
1F
100
AcDbEntity
  8
DEFAULT_1
  6
Continuous
 62
     7
370
    25
100
AcDbCircle
 10
-254.9131944370829
 20
24.64022117175173
 30
0.0
 40
6.0
100
AcDbArc
 50
177.8724380000001
 51
270.0000010000003
  0
ARC
  5
3BE
330
1F
100
AcDbEntity
  8
DEFAULT_1
  6
Continuous
 62
     7
370
    25
100
AcDbCircle
 10
-252.3590074370822
 20
93.39390917175152
 30
0.0
 40
6.0
100
AcDbArc
 50
90.00000100000032
 51
177.8724399999999
  0
ARC
  5
3BF
330
1F
100
AcDbEntity
  8
DEFAULT_1
  6
Continuous
 62
     7
370
    25
100
AcDbCircle
 10
-191.921507437082
 20
93.39390917175152
 30
0.0
 40
6.0
100
AcDbArc
 50
2.127559000000089
 51
90.00000100000032
  0
LINE
  5
3C0
330
1F
100
AcDbEntity
  8
DEFAULT_1
  6
Continuous
 62
     7
370
    25
100
AcDbLine
 10
-193.140257437082
 20
20.64022117175173
 30
0.0
 11
-193.1724624370825
 21
21.0884181717519
 31
0.0
  0
LINE
  5
3C1
330
1F
100
AcDbEntity
  8
DEFAULT_1
  6
Continuous
 62
     7
370
    25
100
AcDbLine
 10
-209.1080514370821
 20
21.08841717175201
 30
0.0
 11
-209.140257437082
 21
20.64022117175173
 31
0.0
  0
ARC
  5
3C2
330
1F
100
AcDbEntity
  8
DEFAULT_1
  6
Continuous
 62
     7
370
    25
100
AcDbCircle
 10
-211.140257437082
 20
20.64022117175173
 30
0.0
 40
2.0
100
AcDbArc
 50
270.0000010000014
 51
0.000000999999775
  0
ARC
  5
3C3
330
1F
100
AcDbEntity
  8
DEFAULT_1
  6
Continuous
 62
     7
370
    25
100
AcDbCircle
 10
-191.140257437082
 20
20.64022117175173
 30
0.0
 40
2.0
100
AcDbArc
 50
180.0000009999998
 51
270.0000010000014
  0
LINE
  5
3C4
330
1F
100
AcDbEntity
  8
DEFAULT_1
  6
Continuous
 62
     7
370
    25
100
AcDbLine
 10
-189.3673194370819
 20
18.64022117175173
 30
0.0
 11
-191.140257437082
 21
18.64022117175173
 31
0.0
  0
LINE
  5
3C5
330
1F
100
AcDbEntity
  8
DEFAULT_1
  6
Continuous
 62
     7
370
    25
100
AcDbLine
 10
-254.9131944370829
 20
18.64022117175173
 30
0.0
 11
-211.1402564370826
 21
18.64022117175173
 31
0.0
  0
ARC
  5
3C6
330
1F
100
AcDbEntity
  8
DEFAULT_1
  6
Continuous
 62
     7
370
    25
100
AcDbCircle
 10
-201.140257437082
 20
20.64022117175173
 30
0.0
 40
8.0
100
AcDbArc
 50
0.0000010000001821
 51
180.0000009999998
  0
LINE
  5
3C7
330
1F
100
AcDbEntity
  8
DEFAULT_1
  6
Continuous
 62
     7
370
    25
100
AcDbLine
 10
-260.9090694370825
 20
24.86297117175164
 30
0.0
 11
-258.3548694370829
 21
93.61666817175174
 31
0.0
  0
LINE
  5
3C8
330
1F
100
AcDbEntity
  8
DEFAULT_1
  6
Continuous
 62
     7
370
    25
100
AcDbLine
 10
-252.3590074370822
 20
99.39390917175152
 30
0.0
 11
-191.921507437082
 21
99.39390917175152
 31
0.0
  0
LINE
  5
3C9
330
1F
100
AcDbEntity
  8
DEFAULT_1
  6
Continuous
 62
     7
370
    25
100
AcDbLine
 10
-183.3714444370823
 20
24.86297117175164
 30
0.0
 11
-185.9256444370828
 21
93.61666817175174
 31
0.0
  0
LINE
  5
3CA
330
1F
100
AcDbEntity
  8
DEFAULT_1
  6
Continuous
 62
     7
370
    25
100
AcDbLine
 10
-253.1402574370822
 20
102.4853461717516
 30
0.0
 11
-191.140257437082
 21
102.4853461717516
 31
0.0
  0
LINE
  5
3CB
330
1F
100
AcDbEntity
  8
DEFAULT_1
  6
Continuous
 62
     7
370
    25
100
AcDbLine
 10
-261.1402564370828
 20
24.97609617175149
 30
0.0
 11
-261.1402564370828
 21
94.48534617175156
 31
0.0
  0
LINE
  5
3CC
330
1F
100
AcDbEntity
  8
DEFAULT_1
  6
Continuous
 62
     7
370
    25
100
AcDbLine
 10
-191.140257437082
 20
16.97609617175149
 30
0.0
 11
-253.1402574370822
 21
16.97609617175149
 31
0.0
  0
LINE
  5
3CD
330
1F
100
AcDbEntity
  8
DEFAULT_1
  6
Continuous
 62
     7
370
    25
100
AcDbLine
 10
-183.140257437082
 20
24.97609617175149
 30
0.0
 11
-183.140257437082
 21
94.48534617175156
 31
0.0
  0
LINE
  5
3CE
330
1F
100
AcDbEntity
  8
DEFAULT_1
  6
Continuous
 62
     7
370
    25
100
AcDbLine
 10
-262.6402564370828
 20
23.44034617175149
 30
0.0
 11
-262.6402564370828
 21
94.87528317175193
 31
0.0
  0
LINE
  5
3CF
330
1F
100
AcDbEntity
  8
DEFAULT_1
  6
Continuous
 62
     7
370
    25
100
AcDbLine
 10
-190.640257437082
 20
14.44034617175149
 30
0.0
 11
-253.6402574370822
 21
14.44034617175149
 31
0.0
  0
LINE
  5
3D0
330
1F
100
AcDbEntity
  8
DEFAULT_1
  6
Continuous
 62
     7
370
    25
100
AcDbLine
 10
152.2105263157895
 20
29.95947117175186
 30
0.0
 11
153.4166058013009
 21
29.95947117175186
 31
0.0
  0
LINE
  5
3D1
330
1F
100
AcDbEntity
  8
DEFAULT_1
  6
Continuous
 62
     7
370
    25
100
AcDbLine
 10
152.2105263157895
 20
89.95947117175186
 30
0.0
 11
153.416605801301
 21
89.95947117175186
 31
0.0
  0
ARC
  5
3D2
330
1F
100
AcDbEntity
  8
DEFAULT_1
  6
Continuous
 62
     7
370
    25
100
AcDbCircle
 10
123.0665043186756
 20
85.183521652123
 30
0.0
 40
15.8
100
AcDbArc
 50
94.43131899999999
 51
180.0
  0
ARC
  5
3D3
330
1F
100
AcDbEntity
  8
DEFAULT_1
  6
Continuous
 62
     7
370
    25
100
AcDbCircle
 10
147.4523703186757
 20
102.8914746521231
 30
0.0
 40
1.3
100
AcDbArc
 50
65.00000000000001
 51
155.0
  0
ARC
  5
3D4
330
1F
100
AcDbEntity
  8
DEFAULT_1
  6
Continuous
 62
     7
370
    25
100
AcDbCircle
 10
145.3188323186756
 20
103.758352652123
 30
0.0
 40
1.0
100
AcDbArc
 50
274.4313189999994
 51
334.9999999999999
  0
LINE
  5
3D5
330
1F
100
AcDbEntity
  8
DEFAULT_1
  6
Continuous
 62
     7
370
    25
100
AcDbLine
 10
146.2741703186756
 20
103.4408786521231
 30
0.0
 11
146.2251406263232
 21
103.3357341395662
 31
0.0
  0
LINE
  5
3D6
330
1F
100
AcDbEntity
  8
DEFAULT_1
  6
Continuous
 62
     7
370
    25
100
AcDbLine
 10
148.0017733186756
 20
104.069674652123
 30
0.0
 11
148.8483881161441
 21
103.6748918907148
 31
0.0
  0
LINE
  5
3D7
330
1F
100
AcDbEntity
  8
DEFAULT_1
  6
Continuous
 62
     7
370
    25
100
AcDbLine
 10
111.8591143186756
 20
15.44034465212306
 30
0.0
 11
107.5994683186756
 21
17.42665065212307
 31
0.0
  0
ARC
  5
3D8
330
1F
100
AcDbEntity
  8
DEFAULT_1
  6
Continuous
 62
     7
370
    25
100
AcDbCircle
 10
108.1488713186756
 20
18.60485065212313
 30
0.0
 40
1.3
100
AcDbArc
 50
155.0
 51
245.0
  0
ARC
  5
3D9
330
1F
100
AcDbEntity
  8
DEFAULT_1
  6
Continuous
 62
     7
370
    25
100
AcDbCircle
 10
106.2665043186756
 20
20.01036465212306
 30
0.0
 40
1.0
100
AcDbArc
 50
334.9999999999999
 51
0.0
  0
LINE
  5
3DA
330
1F
100
AcDbEntity
  8
DEFAULT_1
  6
Continuous
 62
     7
370
    25
100
AcDbLine
 10
107.2665043186756
 20
20.01036465212306
 30
0.0
 11
107.2665043186756
 21
85.183521652123
 31
0.0
  0
LINE
  5
3DB
330
1F
100
AcDbEntity
  8
DEFAULT_1
  6
Continuous
 62
     7
370
    25
100
AcDbLine
 10
121.8457323186757
 20
100.9362906521231
 30
0.0
 11
145.3960963186756
 21
102.7613416521231
 31
0.0
  0
LINE
  5
3DC
330
1F
100
AcDbEntity
  8
DEFAULT_1
  6
Continuous
 62
     7
370
    25
100
AcDbLine
 10
146.2741703186755
 20
103.4408786521231
 30
0.0
 11
106.9706713186755
 21
19.15425465212311
 31
0.0
  0
LINE
  5
3DD
330
1F
100
AcDbEntity
  8
DEFAULT_1
  6
Continuous
 62
     7
370
    25
100
AcDbLine
 10
111.8591143186756
 20
15.44034465212306
 30
0.0
 11
107.5994683186755
 21
17.42665065212307
 31
0.0
  0
ARC
  5
3DE
330
1F
100
AcDbEntity
  8
DEFAULT_1
  6
Continuous
 62
     7
370
    25
100
AcDbCircle
 10
147.4523703186755
 20
102.8914746521231
 30
0.0
 40
1.3
100
AcDbArc
 50
65.00000000000001
 51
155.0
  0
ARC
  5
3DF
330
1F
100
AcDbEntity
  8
DEFAULT_1
  6
Continuous
 62
     7
370
    25
100
AcDbCircle
 10
108.1488713186756
 20
18.60485065212302
 30
0.0
 40
1.3
100
AcDbArc
 50
155.0
 51
245.0
  0
LINE
  5
3E0
330
1F
100
AcDbEntity
  8
DEFAULT_1
  6
Continuous
 62
     7
370
    25
100
AcDbLine
 10
107.2665043186755
 20
20.01036465212306
 30
0.0
 11
107.2665043186755
 21
85.183521652123
 31
0.0
  0
LINE
  5
3E1
330
1F
100
AcDbEntity
  8
DEFAULT_1
  6
Continuous
 62
     7
370
    25
100
AcDbLine
 10
121.8457323186755
 20
100.9362906521231
 30
0.0
 11
145.3960963186755
 21
102.7613416521231
 31
0.0
  0
ARC
  5
3E2
330
1F
100
AcDbEntity
  8
DEFAULT_1
  6
Continuous
 62
     7
370
    25
100
AcDbCircle
 10
123.0665043186755
 20
85.183521652123
 30
0.0
 40
15.8
100
AcDbArc
 50
94.43131899999999
 51
180.0
  0
ARC
  5
3E3
330
1F
100
AcDbEntity
  8
DEFAULT_1
  6
Continuous
 62
     7
370
    25
100
AcDbCircle
 10
145.3188323186755
 20
103.758352652123
 30
0.0
 40
1.0
100
AcDbArc
 50
274.4313189999994
 51
334.9999999999999
  0
ARC
  5
3E4
330
1F
100
AcDbEntity
  8
DEFAULT_1
  6
Continuous
 62
     7
370
    25
100
AcDbCircle
 10
106.2665043186755
 20
20.01036465212306
 30
0.0
 40
1.0
100
AcDbArc
 50
334.9999999999999
 51
0.0
  0
LINE
  5
3E5
330
1F
100
AcDbEntity
  8
DEFAULT_1
  6
Continuous
 62
     7
370
    25
100
AcDbLine
 10
152.2614203186756
 20
102.083369652123
 30
0.0
 11
111.8591143186756
 21
15.44034465212306
 31
0.0
  0
LINE
  5
3E6
330
1F
100
AcDbEntity
  8
DEFAULT_1
  6
Continuous
 62
     7
370
    25
100
AcDbLine
 10
148.0017733186755
 20
104.069674652123
 30
0.0
 11
152.2614203186756
 21
102.083369652123
 31
0.0
  0
LINE
  5
3E7
330
1F
100
AcDbEntity
  8
DEFAULT_1
  6
Continuous
 62
     7
370
    25
100
AcDbLine
 10
152.2105263157895
 20
89.95947117175186
 30
0.0
 11
152.2105263157895
 21
85.81367918560878
 31
0.0
  0
LINE
  5
3E8
330
1F
100
AcDbEntity
  8
DEFAULT_1
  6
Continuous
 62
     7
370
    25
100
AcDbLine
 10
152.2105263157895
 20
34.10526315789471
 30
0.0
 11
152.2105263157895
 21
29.95947117175186
 31
0.0
  0
LINE
  5
3E9
330
1F
100
AcDbEntity
  8
Layer0015
  6
CENTER
 62
     3
370
    25
100
AcDbLine
 10
-272.6402569370822
 20
155.0070627471124
 30
0.0
 11
-272.6402569370822
 21
143.7821341591643
 31
0.0
  0
INSERT
  5
3EA
330
1F
100
AcDbEntity
  8
0
  6
Continuous
100
AcDbBlockReference
  2
DC_GROUP_AM30014_1
 10
0.0
 20
0.0
 30
0.0
  0
INSERT
  5
3EB
330
1F
100
AcDbEntity
  8
0
  6
Continuous
100
AcDbBlockReference
  2
DC_GROUP_AM30014_2
 10
0.0
 20
0.0
 30
0.0
  0
INSERT
  5
3EC
330
1F
100
AcDbEntity
  8
0
  6
Continuous
100
AcDbBlockReference
  2
DC_GROUP_AM30014_3
 10
0.0
 20
0.0
 30
0.0
  0
INSERT
  5
3ED
330
1F
100
AcDbEntity
  8
0
  6
Continuous
100
AcDbBlockReference
  2
DC_GROUP_AM30014_4
 10
0.0
 20
0.0
 30
0.0
  0
INSERT
  5
3EE
330
1F
100
AcDbEntity
  8
0
  6
Continuous
100
AcDbBlockReference
  2
DC_GROUP_AM30014_5
 10
0.0
 20
0.0
 30
0.0
  0
INSERT
  5
3EF
330
1F
100
AcDbEntity
  8
0
  6
Continuous
100
AcDbBlockReference
  2
DC_GROUP_AM30014_6
 10
0.0
 20
0.0
 30
0.0
  0
INSERT
  5
3F0
330
1F
100
AcDbEntity
  8
0
  6
Continuous
100
AcDbBlockReference
  2
DC_GROUP_AM30014_7
 10
0.0
 20
0.0
 30
0.0
  0
INSERT
  5
3F1
330
1F
100
AcDbEntity
  8
0
  6
Continuous
100
AcDbBlockReference
  2
DC_GROUP_AM30014_8
 10
0.0
 20
0.0
 30
0.0
  0
INSERT
  5
3F2
330
1F
100
AcDbEntity
  8
0
  6
Continuous
100
AcDbBlockReference
  2
DC_GROUP_AM30014_9
 10
0.0
 20
0.0
 30
0.0
  0
INSERT
  5
3F3
330
1F
100
AcDbEntity
  8
0
  6
Continuous
100
AcDbBlockReference
  2
DC_GROUP_AM30014_10
 10
0.0
 20
0.0
 30
0.0
  0
INSERT
  5
3F4
330
1F
100
AcDbEntity
  8
0
  6
Continuous
100
AcDbBlockReference
  2
DC_GROUP_AM30014_11
 10
0.0
 20
0.0
 30
0.0
  0
INSERT
  5
3F5
330
1F
100
AcDbEntity
  8
0
  6
Continuous
100
AcDbBlockReference
  2
DC_GROUP_AM30014_12
 10
0.0
 20
0.0
 30
0.0
  0
INSERT
  5
3F6
330
1F
100
AcDbEntity
  8
0
  6
Continuous
100
AcDbBlockReference
  2
DC_GROUP_AM30014_13
 10
0.0
 20
0.0
 30
0.0
  0
INSERT
  5
3F7
330
1F
100
AcDbEntity
  8
0
  6
Continuous
100
AcDbBlockReference
  2
DC_GROUP_AM30014_14
 10
0.0
 20
0.0
 30
0.0
  0
VIEWPORT
  5
B4
330
1B
100
AcDbEntity
 67
     1
  8
0
100
AcDbViewport
 10
12.11478218654429
 20
14.55883359826458
 30
0.0
 40
2033.220763301421
 41
936.7098286200982
 68
     1
 69
     1
 12
12.11478218654429
 22
14.55883359826458
 13
0.0
 23
0.0
 14
0.5
 24
0.5
 15
0.0
 25
0.0
 16
0.0
 26
0.0
 36
1.0
 17
0.0
 27
0.0
 37
0.0
 42
50.0
 43
0.0
 44
0.0
 45
936.7098286200982
 50
0.0
 51
0.0
 72
   100
 90
   557152
  1

281
     0
 71
     1
 74
     0
110
0.0
120
0.0
130
0.0
111
1.0
121
0.0
131
0.0
112
0.0
122
1.0
132
0.0
 79
     0
146
0.0
170
     0
 61
     5
348
2F
292
     1
282
     1
141
0.0
142
0.0
 63
   256
  0
ENDSEC
  0
SECTION
  2
OBJECTS
  0
DICTIONARY
  5
C
330
0
100
AcDbDictionary
281
     1
  3
ACAD_DETAILVIEWSTYLE
350
42F
  3
ACAD_GROUP
350
D
  3
ACAD_LAYOUT
350
1A
  3
ACAD_MATERIAL
350
43
  3
ACAD_MLEADERSTYLE
350
6B
  3
ACAD_MLINESTYLE
350
17
  3
ACAD_PLOTSETTINGS
350
19
  3
ACAD_PLOTSTYLENAME
350
E
  3
ACAD_SCALELIST
350
47
  3
ACAD_SECTIONVIEWSTYLE
350
430
  3
ACAD_TABLESTYLE
350
69
  3
ACAD_VISUALSTYLE
350
2A
  3
ACDB_RECOMPOSE_DATA
350
42C
  3
AcDbVariableDictionary
350
3F8
  0
SUN
  5
6D
330
29
100
AcDbSun
 90
        1
290
     0
 63
     7
421
 16777215
 40
1.0
291
     1
 91
  2455826
 92
 54000000
292
     0
 70
     2
 71
   256
280
     1
  0
DICTIONARY
  5
42F
102
{ACAD_REACTORS
330
C
102
}
330
C
100
AcDbDictionary
281
     1
  0
DICTIONARY
  5
D
102
{ACAD_REACTORS
330
C
102
}
330
C
100
AcDbDictionary
281
     1
  0
DICTIONARY
  5
1A
102
{ACAD_REACTORS
330
C
102
}
330
C
100
AcDbDictionary
281
     1
  3
Layout1
350
1E
  3
Layout2
350
26
  3
Model
350
22
  0
DICTIONARY
  5
43
102
{ACAD_REACTORS
330
C
102
}
330
C
100
AcDbDictionary
281
     1
  3
ByBlock
350
45
  3
ByLayer
350
44
  3
Global
350
46
  0
DICTIONARY
  5
6B
102
{ACAD_REACTORS
330
C
102
}
330
C
100
AcDbDictionary
281
     1
  3
Standard
350
6C
  0
DICTIONARY
  5
17
102
{ACAD_REACTORS
330
C
102
}
330
C
100
AcDbDictionary
281
     1
  3
Standard
350
18
  0
DICTIONARY
  5
19
102
{ACAD_REACTORS
330
C
102
}
330
C
100
AcDbDictionary
281
     1
  0
ACDBDICTIONARYWDFLT
  5
E
102
{ACAD_REACTORS
330
C
102
}
330
C
100
AcDbDictionary
281
     1
  3
Normal
350
F
100
AcDbDictionaryWithDefault
340
F
  0
DICTIONARY
  5
47
102
{ACAD_REACTORS
330
C
102
}
330
C
100
AcDbDictionary
281
     1
  3
A0
350
48
  3
A1
350
49
  3
A2
350
4A
  3
A3
350
4B
  3
A4
350
4C
  3
A5
350
4D
  3
A6
350
4E
  3
A7
350
4F
  3
A8
350
50
  3
A9
350
51
  3
B0
350
52
  3
B1
350
53
  3
B2
350
54
  3
B3
350
55
  3
B4
350
56
  3
B5
350
57
  3
B6
350
58
  3
B7
350
59
  3
B8
350
5A
  3
B9
350
5B
  3
C0
350
5C
  3
C1
350
5D
  3
C2
350
5E
  3
C3
350
5F
  3
C4
350
60
  3
C5
350
61
  3
C6
350
62
  3
C7
350
63
  3
C8
350
64
  3
C9
350
65
  3
D0
350
66
  3
D1
350
67
  3
D2
350
68
  0
DICTIONARY
  5
430
102
{ACAD_REACTORS
330
C
102
}
330
C
100
AcDbDictionary
281
     1
  0
DICTIONARY
  5
69
102
{ACAD_REACTORS
330
C
102
}
330
C
100
AcDbDictionary
281
     1
  3
Standard
350
6A
  0
DICTIONARY
  5
2A
102
{ACAD_REACTORS
330
C
102
}
330
C
100
AcDbDictionary
281
     1
  3
2dWireframe
350
2F
  3
Basic
350
32
  3
Brighten
350
36
  3
ColorChange
350
3A
  3
Conceptual
350
34
  3
Dim
350
35
  3
EdgeColorOff
350
3D
  3
Facepattern
350
39
  3
Flat
350
2B
  3
FlatWithEdges
350
2C
  3
Gouraud
350
2D
  3
GouraudWithEdges
350
2E
  3
Hidden
350
31
  3
JitterOff
350
3B
  3
Linepattern
350
38
  3
OverhangOff
350
3C
  3
Realistic
350
33
  3
Shaded
350
42
  3
Shaded with edges
350
41
  3
Shades of Gray
350
3E
  3
Sketchy
350
3F
  3
Thicken
350
37
  3
Wireframe
350
30
  3
X-Ray
350
40
  0
XRECORD
  5
42C
102
{ACAD_REACTORS
330
C
102
}
330
C
100
AcDbXrecord
280
     1
 90
        1
330
6A
  0
DICTIONARY
  5
3F8
102
{ACAD_REACTORS
330
C
102
}
330
C
100
AcDbDictionary
281
     1
  3
CANNOSCALE
350
3F9
  3
CMLEADERSTYLE
350
42E
  3
CTABLESTYLE
350
42D
  0
LAYOUT
  5
1E
102
{ACAD_REACTORS
330
1A
102
}
330
1A
100
AcDbPlotSettings
  1

  2
none_device
  4

  6

 40
0.0
 41
0.0
 42
0.0
 43
0.0
 44
0.0
 45
0.0
 46
0.0
 47
0.0
 48
0.0
 49
0.0
140
0.0
141
0.0
142
1.0
143
1.0
 70
   688
 72
     0
 73
     0
 74
     5
  7

 75
    16
 76
     0
 77
     2
 78
   300
147
1.0
148
0.0
149
0.0
100
AcDbLayout
  1
Layout1
 70
     0
 71
     1
 10
0.0
 20
0.0
 11
12.0
 21
9.0
 12
0.0
 22
0.0
 32
0.0
 14
1.000000000000000E+20
 24
1.000000000000000E+20
 34
1.000000000000000E+20
 15
-1.000000000000000E+20
 25
-1.000000000000000E+20
 35
-1.000000000000000E+20
146
0.0
 13
0.0
 23
0.0
 33
0.0
 16
1.0
 26
0.0
 36
0.0
 17
0.0
 27
1.0
 37
0.0
 76
     0
330
1B
331
B4
  0
LAYOUT
  5
26
102
{ACAD_REACTORS
330
1A
102
}
330
1A
100
AcDbPlotSettings
  1

  2
none_device
  4

  6

 40
0.0
 41
0.0
 42
0.0
 43
0.0
 44
0.0
 45
0.0
 46
0.0
 47
0.0
 48
0.0
 49
0.0
140
0.0
141
0.0
142
1.0
143
1.0
 70
   688
 72
     0
 73
     0
 74
     5
  7

 75
    16
 76
     0
 77
     2
 78
   300
147
1.0
148
0.0
149
0.0
100
AcDbLayout
  1
Layout2
 70
     1
 71
     2
 10
0.0
 20
0.0
 11
0.0
 21
0.0
 12
0.0
 22
0.0
 32
0.0
 14
0.0
 24
0.0
 34
0.0
 15
0.0
 25
0.0
 35
0.0
146
0.0
 13
0.0
 23
0.0
 33
0.0
 16
1.0
 26
0.0
 36
0.0
 17
0.0
 27
1.0
 37
0.0
 76
     0
330
23
  0
LAYOUT
  5
22
102
{ACAD_REACTORS
330
1A
102
}
330
1A
100
AcDbPlotSettings
  1

  2
DWG to PDF.pc3
  4
ISO_A3_(297.00_x_420.00_MM)
  6

 40
5.0
 41
17.0
 42
5.0
 43
17.0
 44
297.0
 45
420.0
 46
0.0
 47
0.0
 48
0.0
 49
0.0
140
0.0
141
0.0
142
1.0
143
4.0
 70
  1712
 72
     1
 73
     1
 74
     1
  7

 75
    18
 76
     0
 77
     2
 78
   300
147
0.25
148
0.0
149
0.0
100
AcDbLayout
  1
Model
 70
     1
 71
     0
 10
-840.0
 20
-594.0
 11
840.0
 21
594.0
 12
0.0
 22
0.0
 32
0.0
 14
-1004.495599464166
 24
-453.7960807117845
 34
0.0
 15
1028.725163837255
 25
482.9137479083137
 35
0.0
146
0.0
 13
0.0
 23
0.0
 33
0.0
 16
1.0
 26
0.0
 36
0.0
 17
0.0
 27
1.0
 37
0.0
 76
     0
330
1F
331
29
  0
MATERIAL
  5
45
102
{ACAD_REACTORS
330
43
102
}
330
43
100
AcDbMaterial
  1
ByBlock
 72
     1
 94
      127
  0
MATERIAL
  5
44
102
{ACAD_REACTORS
330
43
102
}
330
43
100
AcDbMaterial
  1
ByLayer
 72
     1
 94
      127
  0
MATERIAL
  5
46
102
{ACAD_REACTORS
330
43
102
}
330
43
100
AcDbMaterial
  1
Global
 72
     1
 94
      127
  0
MLEADERSTYLE
  5
6C
102
{ACAD_REACTORS
330
6B
102
}
330
6B
100
AcDbMLeaderStyle
179
     2
170
     2
171
     1
172
     0
 90
        2
 40
0.0
 41
0.0
173
     1
 91
-1056964608
340
14
 92
       -2
290
     1
 42
0.09
291
     1
 43
0.36
  3
Standard
341
0
 44
0.18
300

342
11
174
     1
178
     6
175
     1
176
     0
 93
-1056964608
 45
0.18
292
     0
297
     0
 46
0.18
343
0
 94
-1056964608
 47
1.0
 49
1.0
140
1.0
293
     1
141
0.0
294
     1
177
     0
142
1.0
295
     0
296
     0
143
0.125
271
     0
272
     9
273
     9
  0
MLINESTYLE
  5
18
102
{ACAD_REACTORS
330
17
102
}
330
17
100
AcDbMlineStyle
  2
Standard
 70
     0
  3

 62
   256
 51
90.0
 52
90.0
 71
     2
 49
0.5
 62
   256
  6
BYLAYER
 49
-0.5
 62
   256
  6
BYLAYER
  0
ACDBPLACEHOLDER
  5
F
102
{ACAD_REACTORS
330
E
102
}
330
E
  0
SCALE
  5
48
102
{ACAD_REACTORS
330
47
102
}
330
47
100
AcDbScale
 70
     0
300
1:1
140
1.0
141
1.0
290
     1
  0
SCALE
  5
49
102
{ACAD_REACTORS
330
47
102
}
330
47
100
AcDbScale
 70
     0
300
1:2
140
1.0
141
2.0
290
     0
  0
SCALE
  5
4A
102
{ACAD_REACTORS
330
47
102
}
330
47
100
AcDbScale
 70
     0
300
1:4
140
1.0
141
4.0
290
     0
  0
SCALE
  5
4B
102
{ACAD_REACTORS
330
47
102
}
330
47
100
AcDbScale
 70
     0
300
1:5
140
1.0
141
5.0
290
     0
  0
SCALE
  5
4C
102
{ACAD_REACTORS
330
47
102
}
330
47
100
AcDbScale
 70
     0
300
1:8
140
1.0
141
8.0
290
     0
  0
SCALE
  5
4D
102
{ACAD_REACTORS
330
47
102
}
330
47
100
AcDbScale
 70
     0
300
1:10
140
1.0
141
10.0
290
     0
  0
SCALE
  5
4E
102
{ACAD_REACTORS
330
47
102
}
330
47
100
AcDbScale
 70
     0
300
1:16
140
1.0
141
16.0
290
     0
  0
SCALE
  5
4F
102
{ACAD_REACTORS
330
47
102
}
330
47
100
AcDbScale
 70
     0
300
1:20
140
1.0
141
20.0
290
     0
  0
SCALE
  5
50
102
{ACAD_REACTORS
330
47
102
}
330
47
100
AcDbScale
 70
     0
300
1:30
140
1.0
141
30.0
290
     0
  0
SCALE
  5
51
102
{ACAD_REACTORS
330
47
102
}
330
47
100
AcDbScale
 70
     0
300
1:40
140
1.0
141
40.0
290
     0
  0
SCALE
  5
52
102
{ACAD_REACTORS
330
47
102
}
330
47
100
AcDbScale
 70
     0
300
1:50
140
1.0
141
50.0
290
     0
  0
SCALE
  5
53
102
{ACAD_REACTORS
330
47
102
}
330
47
100
AcDbScale
 70
     0
300
1:100
140
1.0
141
100.0
290
     0
  0
SCALE
  5
54
102
{ACAD_REACTORS
330
47
102
}
330
47
100
AcDbScale
 70
     0
300
2:1
140
2.0
141
1.0
290
     0
  0
SCALE
  5
55
102
{ACAD_REACTORS
330
47
102
}
330
47
100
AcDbScale
 70
     0
300
4:1
140
4.0
141
1.0
290
     0
  0
SCALE
  5
56
102
{ACAD_REACTORS
330
47
102
}
330
47
100
AcDbScale
 70
     0
300
8:1
140
8.0
141
1.0
290
     0
  0
SCALE
  5
57
102
{ACAD_REACTORS
330
47
102
}
330
47
100
AcDbScale
 70
     0
300
10:1
140
10.0
141
1.0
290
     0
  0
SCALE
  5
58
102
{ACAD_REACTORS
330
47
102
}
330
47
100
AcDbScale
 70
     0
300
100:1
140
100.0
141
1.0
290
     0
  0
SCALE
  5
59
102
{ACAD_REACTORS
330
47
102
}
330
47
100
AcDbScale
 70
     0
300
1/128" = 1'-0"
140
0.0078125
141
12.0
290
     0
  0
SCALE
  5
5A
102
{ACAD_REACTORS
330
47
102
}
330
47
100
AcDbScale
 70
     0
300
1/64" = 1'-0"
140
0.015625
141
12.0
290
     0
  0
SCALE
  5
5B
102
{ACAD_REACTORS
330
47
102
}
330
47
100
AcDbScale
 70
     0
300
1/32" = 1'-0"
140
0.03125
141
12.0
290
     0
  0
SCALE
  5
5C
102
{ACAD_REACTORS
330
47
102
}
330
47
100
AcDbScale
 70
     0
300
1/16" = 1'-0"
140
0.0625
141
12.0
290
     0
  0
SCALE
  5
5D
102
{ACAD_REACTORS
330
47
102
}
330
47
100
AcDbScale
 70
     0
300
3/32" = 1'-0"
140
0.09375
141
12.0
290
     0
  0
SCALE
  5
5E
102
{ACAD_REACTORS
330
47
102
}
330
47
100
AcDbScale
 70
     0
300
1/8" = 1'-0"
140
0.125
141
12.0
290
     0
  0
SCALE
  5
5F
102
{ACAD_REACTORS
330
47
102
}
330
47
100
AcDbScale
 70
     0
300
3/16" = 1'-0"
140
0.1875
141
12.0
290
     0
  0
SCALE
  5
60
102
{ACAD_REACTORS
330
47
102
}
330
47
100
AcDbScale
 70
     0
300
1/4" = 1'-0"
140
0.25
141
12.0
290
     0
  0
SCALE
  5
61
102
{ACAD_REACTORS
330
47
102
}
330
47
100
AcDbScale
 70
     0
300
3/8" = 1'-0"
140
0.375
141
12.0
290
     0
  0
SCALE
  5
62
102
{ACAD_REACTORS
330
47
102
}
330
47
100
AcDbScale
 70
     0
300
1/2" = 1'-0"
140
0.5
141
12.0
290
     0
  0
SCALE
  5
63
102
{ACAD_REACTORS
330
47
102
}
330
47
100
AcDbScale
 70
     0
300
3/4" = 1'-0"
140
0.75
141
12.0
290
     0
  0
SCALE
  5
64
102
{ACAD_REACTORS
330
47
102
}
330
47
100
AcDbScale
 70
     0
300
1" = 1'-0"
140
1.0
141
12.0
290
     0
  0
SCALE
  5
65
102
{ACAD_REACTORS
330
47
102
}
330
47
100
AcDbScale
 70
     0
300
1-1/2" = 1'-0"
140
1.5
141
12.0
290
     0
  0
SCALE
  5
66
102
{ACAD_REACTORS
330
47
102
}
330
47
100
AcDbScale
 70
     0
300
3" = 1'-0"
140
3.0
141
12.0
290
     0
  0
SCALE
  5
67
102
{ACAD_REACTORS
330
47
102
}
330
47
100
AcDbScale
 70
     0
300
6" = 1'-0"
140
6.0
141
12.0
290
     0
  0
SCALE
  5
68
102
{ACAD_REACTORS
330
47
102
}
330
47
100
AcDbScale
 70
     0
300
1'-0" = 1'-0"
140
12.0
141
12.0
290
     0
  0
TABLESTYLE
  5
6A
102
{ACAD_REACTORS
330
69
102
}
102
{ACAD_XDICTIONARY
360
42A
102
}
330
69
100
AcDbTableStyle
  3
Standard
 70
     0
 71
     0
 40
0.06
 41
0.06
280
     0
281
     0
  7
Standard
140
0.18
170
     2
 62
     0
 63
   257
283
     0
 90
        4
 91
        0
  1

274
    -2
284
     1
 64
     0
275
    -2
285
     1
 65
     0
276
    -2
286
     1
 66
     0
277
    -2
287
     1
 67
     0
278
    -2
288
     1
 68
     0
279
    -2
289
     1
 69
     0
  7
Standard
140
0.25
170
     5
 62
     0
 63
   257
283
     0
 90
        4
 91
        0
  1

274
    -2
284
     1
 64
     0
275
    -2
285
     1
 65
     0
276
    -2
286
     1
 66
     0
277
    -2
287
     1
 67
     0
278
    -2
288
     1
 68
     0
279
    -2
289
     1
 69
     0
  7
Standard
140
0.18
170
     5
 62
     0
 63
   257
283
     0
 90
        4
 91
        0
  1

274
    -2
284
     1
 64
     0
275
    -2
285
     1
 65
     0
276
    -2
286
     1
 66
     0
277
    -2
287
     1
 67
     0
278
    -2
288
     1
 68
     0
279
    -2
289
     1
 69
     0
  0
VISUALSTYLE
  5
2F
102
{ACAD_REACTORS
330
2A
102
}
102
{ACAD_XDICTIONARY
360
402
102
}
330
2A
100
AcDbVisualStyle
  2
2dWireframe
 70
     4
177
     2
291
     0
 71
     0
176
     1
 72
     2
176
     1
 73
     0
176
     1
 90
        0
176
     1
 40
0.6
176
     1
 41
30.0
176
     1
 62
     5
 63
     7
421
 16777215
176
     1
 74
     1
176
     1
 91
        4
176
     1
 64
     7
176
     1
 65
   257
176
     1
 75
     1
176
     1
175
     1
176
     1
 42
1.0
176
     1
 92
        0
176
     1
 66
   257
176
     1
 43
1.0
176
     1
 76
     1
176
     1
 77
     6
176
     1
 78
     2
176
     1
 67
     7
176
     1
 79
     5
176
     1
170
     0
176
     1
171
     0
176
     1
290
     0
176
     1
 93
        1
176
     1
 44
0.0
176
     1
173
     0
176
     1
  0
VISUALSTYLE
  5
32
102
{ACAD_REACTORS
330
2A
102
}
102
{ACAD_XDICTIONARY
360
408
102
}
330
2A
100
AcDbVisualStyle
  2
Basic
 70
     7
177
     2
291
     1
 71
     1
176
     1
 72
     0
176
     1
 73
     1
176
     1
 90
        0
176
     1
 40
0.6
176
     1
 41
30.0
176
     1
 62
     5
 63
     7
421
 16777215
176
     1
 74
     0
176
     1
 91
        4
176
     1
 64
     7
176
     1
 65
   257
176
     1
 75
     1
176
     1
175
     1
176
     1
 42
1.0
176
     1
 92
        8
176
     1
 66
     7
176
     1
 43
1.0
176
     1
 76
     1
176
     1
 77
     6
176
     1
 78
     2
176
     1
 67
     7
176
     1
 79
     5
176
     1
170
     0
176
     1
171
     0
176
     1
290
     0
176
     1
 93
        1
176
     1
 44
0.0
176
     1
173
     0
176
     1
  0
VISUALSTYLE
  5
36
102
{ACAD_REACTORS
330
2A
102
}
102
{ACAD_XDICTIONARY
360
410
102
}
330
2A
100
AcDbVisualStyle
  2
Brighten
 70
    12
177
     2
291
     1
 71
     2
176
     1
 72
     2
176
     1
 73
     0
176
     1
 90
        0
176
     1
 40
0.6
176
     1
 41
30.0
176
     1
 62
     5
 63
     7
421
 16777215
176
     1
 74
     1
176
     1
 91
        4
176
     1
 64
     7
176
     1
 65
   257
176
     1
 75
     1
176
     1
175
     1
176
     1
 42
1.0
176
     1
 92
        8
176
     1
 66
     7
176
     1
 43
1.0
176
     1
 76
     1
176
     1
 77
     6
176
     1
 78
     2
176
     1
 67
     7
176
     1
 79
     5
176
     1
170
     0
176
     1
171
     0
176
     1
290
     0
176
     1
 93
        1
176
     1
 44
50.0
176
     1
173
     0
176
     1
  0
VISUALSTYLE
  5
3A
102
{ACAD_REACTORS
330
2A
102
}
102
{ACAD_XDICTIONARY
360
418
102
}
330
2A
100
AcDbVisualStyle
  2
ColorChange
 70
    16
177
     2
291
     1
 71
     2
176
     1
 72
     2
176
     1
 73
     3
176
     1
 90
        0
176
     1
 40
0.6
176
     1
 41
30.0
176
     1
 62
     5
 63
     8
421
  8421504
176
     1
 74
     1
176
     1
 91
        4
176
     1
 64
     7
176
     1
 65
   257
176
     1
 75
     1
176
     1
175
     1
176
     1
 42
1.0
176
     1
 92
        8
176
     1
 66
     8
424
  8421504
176
     1
 43
1.0
176
     1
 76
     1
176
     1
 77
     6
176
     1
 78
     2
176
     1
 67
     7
176
     1
 79
     5
176
     1
170
     0
176
     1
171
     0
176
     1
290
     0
176
     1
 93
        1
176
     1
 44
0.0
176
     1
173
     0
176
     1
  0
VISUALSTYLE
  5
34
102
{ACAD_REACTORS
330
2A
102
}
102
{ACAD_XDICTIONARY
360
40C
102
}
330
2A
100
AcDbVisualStyle
  2
Conceptual
 70
     9
177
     2
291
     0
 71
     3
176
     1
 72
     2
176
     1
 73
     0
176
     1
 90
        0
176
     1
 40
0.6
176
     1
 41
30.0
176
     1
 62
     5
 63
     7
421
 16777215
176
     1
 74
     2
176
     1
 91
        2
176
     1
 64
     7
176
     1
 65
   257
176
     1
 75
     1
176
     1
175
     1
176
     1
 42
179.0
176
     1
 92
        8
176
     1
 66
     7
176
     1
 43
1.0
176
     1
 76
     1
176
     1
 77
     6
176
     1
 78
     2
176
     1
 67
     7
176
     1
 79
     3
176
     1
170
     0
176
     1
171
     0
176
     1
290
     0
176
     1
 93
        1
176
     1
 44
0.0
176
     1
173
     0
176
     1
  0
VISUALSTYLE
  5
35
102
{ACAD_REACTORS
330
2A
102
}
102
{ACAD_XDICTIONARY
360
40E
102
}
330
2A
100
AcDbVisualStyle
  2
Dim
 70
    11
177
     2
291
     1
 71
     2
176
     1
 72
     2
176
     1
 73
     0
176
     1
 90
        0
176
     1
 40
0.6
176
     1
 41
30.0
176
     1
 62
     5
 63
     7
421
 16777215
176
     1
 74
     1
176
     1
 91
        4
176
     1
 64
     7
176
     1
 65
   257
176
     1
 75
     1
176
     1
175
     1
176
     1
 42
1.0
176
     1
 92
        8
176
     1
 66
     7
176
     1
 43
1.0
176
     1
 76
     1
176
     1
 77
     6
176
     1
 78
     2
176
     1
 67
     7
176
     1
 79
     5
176
     1
170
     0
176
     1
171
     0
176
     1
290
     0
176
     1
 93
        1
176
     1
 44
-50.0
176
     1
173
     0
176
     1
  0
VISUALSTYLE
  5
3D
102
{ACAD_REACTORS
330
2A
102
}
102
{ACAD_XDICTIONARY
360
41E
102
}
330
2A
100
AcDbVisualStyle
  2
EdgeColorOff
 70
    22
177
     2
291
     1
 71
     2
176
     0
 72
     2
176
     0
 73
     0
176
     0
 90
        0
176
     0
 40
0.6
176
     0
 41
30.0
176
     0
 62
     5
 63
     7
421
 16777215
176
     0
 74
     1
176
     0
 91
        4
176
     0
 64
     7
176
     0
 65
   257
176
     0
 75
     1
176
     0
175
     1
176
     0
 42
1.0
176
     0
 92
        8
176
     2
 66
     7
176
     0
 43
1.0
176
     0
 76
     1
176
     0
 77
     6
176
     0
 78
     2
176
     0
 67
     7
176
     0
 79
     5
176
     0
170
     0
176
     0
171
     0
176
     0
290
     0
176
     0
 93
        1
176
     0
 44
0.0
176
     0
173
     0
176
     0
  0
VISUALSTYLE
  5
39
102
{ACAD_REACTORS
330
2A
102
}
102
{ACAD_XDICTIONARY
360
416
102
}
330
2A
100
AcDbVisualStyle
  2
Facepattern
 70
    15
177
     2
291
     1
 71
     2
176
     1
 72
     2
176
     1
 73
     0
176
     1
 90
        0
176
     1
 40
0.6
176
     1
 41
30.0
176
     1
 62
     5
 63
     7
421
 16777215
176
     1
 74
     1
176
     1
 91
        4
176
     1
 64
     7
176
     1
 65
   257
176
     1
 75
     1
176
     1
175
     1
176
     1
 42
1.0
176
     1
 92
        8
176
     1
 66
     7
176
     1
 43
1.0
176
     1
 76
     1
176
     1
 77
     6
176
     1
 78
     2
176
     1
 67
     7
176
     1
 79
     5
176
     1
170
     0
176
     1
171
     0
176
     1
290
     0
176
     1
 93
        1
176
     1
 44
0.0
176
     1
173
     0
176
     1
  0
VISUALSTYLE
  5
2B
102
{ACAD_REACTORS
330
2A
102
}
102
{ACAD_XDICTIONARY
360
3FA
102
}
330
2A
100
AcDbVisualStyle
  2
Flat
 70
     0
177
     2
291
     1
 71
     2
176
     1
 72
     1
176
     1
 73
     1
176
     1
 90
        2
176
     1
 40
0.6
176
     1
 41
30.0
176
     1
 62
     5
 63
     7
421
 16777215
176
     1
 74
     0
176
     1
 91
        0
176
     1
 64
     7
176
     1
 65
   257
176
     1
 75
     1
176
     1
175
     1
176
     1
 42
1.0
176
     1
 92
        8
176
     1
 66
     7
176
     1
 43
1.0
176
     1
 76
     1
176
     1
 77
     6
176
     1
 78
     2
176
     1
 67
     7
176
     1
 79
     5
176
     1
170
     0
176
     1
171
     0
176
     1
290
     0
176
     1
 93
       13
176
     1
 44
0.0
176
     1
173
     0
176
     1
  0
VISUALSTYLE
  5
2C
102
{ACAD_REACTORS
330
2A
102
}
102
{ACAD_XDICTIONARY
360
3FC
102
}
330
2A
100
AcDbVisualStyle
  2
FlatWithEdges
 70
     1
177
     2
291
     1
 71
     2
176
     1
 72
     1
176
     1
 73
     1
176
     1
 90
        2
176
     1
 40
0.6
176
     1
 41
30.0
176
     1
 62
     5
 63
     7
421
 16777215
176
     1
 74
     1
176
     1
 91
        0
176
     1
 64
     7
176
     1
 65
   257
176
     1
 75
     1
176
     1
175
     1
176
     1
 42
1.0
176
     1
 92
        0
176
     1
 66
   257
176
     1
 43
1.0
176
     1
 76
     1
176
     1
 77
     6
176
     1
 78
     2
176
     1
 67
     7
176
     1
 79
     5
176
     1
170
     0
176
     1
171
     0
176
     1
290
     0
176
     1
 93
       13
176
     1
 44
0.0
176
     1
173
     0
176
     1
  0
VISUALSTYLE
  5
2D
102
{ACAD_REACTORS
330
2A
102
}
102
{ACAD_XDICTIONARY
360
3FE
102
}
330
2A
100
AcDbVisualStyle
  2
Gouraud
 70
     2
177
     2
291
     1
 71
     2
176
     1
 72
     2
176
     1
 73
     1
176
     1
 90
        2
176
     1
 40
0.6
176
     1
 41
30.0
176
     1
 62
     5
 63
     7
421
 16777215
176
     1
 74
     0
176
     1
 91
        0
176
     1
 64
     7
176
     1
 65
   257
176
     1
 75
     1
176
     1
175
     1
176
     1
 42
1.0
176
     1
 92
        0
176
     1
 66
     7
176
     1
 43
1.0
176
     1
 76
     1
176
     1
 77
     6
176
     1
 78
     2
176
     1
 67
     7
176
     1
 79
     5
176
     1
170
     0
176
     1
171
     0
176
     1
290
     0
176
     1
 93
       13
176
     1
 44
0.0
176
     1
173
     0
176
     1
  0
VISUALSTYLE
  5
2E
102
{ACAD_REACTORS
330
2A
102
}
102
{ACAD_XDICTIONARY
360
400
102
}
330
2A
100
AcDbVisualStyle
  2
GouraudWithEdges
 70
     3
177
     2
291
     1
 71
     2
176
     1
 72
     2
176
     1
 73
     1
176
     1
 90
        2
176
     1
 40
0.6
176
     1
 41
30.0
176
     1
 62
     5
 63
     7
421
 16777215
176
     1
 74
     1
176
     1
 91
        0
176
     1
 64
     7
176
     1
 65
   257
176
     1
 75
     1
176
     1
175
     1
176
     1
 42
1.0
176
     1
 92
        0
176
     1
 66
   257
176
     1
 43
1.0
176
     1
 76
     1
176
     1
 77
     6
176
     1
 78
     2
176
     1
 67
     7
176
     1
 79
     5
176
     1
170
     0
176
     1
171
     0
176
     1
290
     0
176
     1
 93
       13
176
     1
 44
0.0
176
     1
173
     0
176
     1
  0
VISUALSTYLE
  5
31
102
{ACAD_REACTORS
330
2A
102
}
102
{ACAD_XDICTIONARY
360
406
102
}
330
2A
100
AcDbVisualStyle
  2
Hidden
 70
     6
177
     2
291
     0
 71
     1
176
     1
 72
     2
176
     1
 73
     2
176
     1
 90
        0
176
     1
 40
0.6
176
     1
 41
30.0
176
     1
 62
     5
 63
     7
421
 16777215
176
     1
 74
     2
176
     1
 91
        2
176
     1
 64
     7
176
     1
 65
   257
176
     1
 75
     2
176
     1
175
     1
176
     1
 42
40.0
176
     1
 92
        0
176
     1
 66
   257
176
     1
 43
1.0
176
     1
 76
     1
176
     1
 77
     6
176
     1
 78
     2
176
     1
 67
     7
176
     1
 79
     3
176
     1
170
     0
176
     1
171
     0
176
     1
290
     0
176
     1
 93
        1
176
     1
 44
0.0
176
     1
173
     0
176
     1
  0
VISUALSTYLE
  5
3B
102
{ACAD_REACTORS
330
2A
102
}
102
{ACAD_XDICTIONARY
360
41A
102
}
330
2A
100
AcDbVisualStyle
  2
JitterOff
 70
    20
177
     2
291
     1
 71
     2
176
     0
 72
     2
176
     0
 73
     0
176
     0
 90
        0
176
     0
 40
0.6
176
     0
 41
30.0
176
     0
 62
     5
 63
     7
421
 16777215
176
     0
 74
     1
176
     0
 91
        4
176
     0
 64
     7
176
     0
 65
   257
176
     0
 75
     1
176
     0
175
     1
176
     0
 42
1.0
176
     0
 92
       10
176
     2
 66
     7
176
     0
 43
1.0
176
     0
 76
     1
176
     0
 77
     6
176
     0
 78
     2
176
     0
 67
     7
176
     0
 79
     5
176
     0
170
     0
176
     0
171
     0
176
     0
290
     0
176
     0
 93
        1
176
     0
 44
0.0
176
     0
173
     0
176
     0
  0
VISUALSTYLE
  5
38
102
{ACAD_REACTORS
330
2A
102
}
102
{ACAD_XDICTIONARY
360
414
102
}
330
2A
100
AcDbVisualStyle
  2
Linepattern
 70
    14
177
     2
291
     1
 71
     2
176
     1
 72
     2
176
     1
 73
     0
176
     1
 90
        0
176
     1
 40
0.6
176
     1
 41
30.0
176
     1
 62
     5
 63
     7
421
 16777215
176
     1
 74
     1
176
     1
 91
        4
176
     1
 64
     7
176
     1
 65
   257
176
     1
 75
     7
176
     1
175
     7
176
     1
 42
1.0
176
     1
 92
        8
176
     1
 66
     7
176
     1
 43
1.0
176
     1
 76
     1
176
     1
 77
     6
176
     1
 78
     2
176
     1
 67
     7
176
     1
 79
     5
176
     1
170
     0
176
     1
171
     0
176
     1
290
     0
176
     1
 93
        1
176
     1
 44
0.0
176
     1
173
     0
176
     1
  0
VISUALSTYLE
  5
3C
102
{ACAD_REACTORS
330
2A
102
}
102
{ACAD_XDICTIONARY
360
41C
102
}
330
2A
100
AcDbVisualStyle
  2
OverhangOff
 70
    21
177
     2
291
     1
 71
     2
176
     0
 72
     2
176
     0
 73
     0
176
     0
 90
        0
176
     0
 40
0.6
176
     0
 41
30.0
176
     0
 62
     5
 63
     7
421
 16777215
176
     0
 74
     1
176
     0
 91
        4
176
     0
 64
     7
176
     0
 65
   257
176
     0
 75
     1
176
     0
175
     1
176
     0
 42
1.0
176
     0
 92
        9
176
     2
 66
     7
176
     0
 43
1.0
176
     0
 76
     1
176
     0
 77
     6
176
     0
 78
     2
176
     0
 67
     7
176
     0
 79
     5
176
     0
170
     0
176
     0
171
     0
176
     0
290
     0
176
     0
 93
        1
176
     0
 44
0.0
176
     0
173
     0
176
     0
  0
VISUALSTYLE
  5
33
102
{ACAD_REACTORS
330
2A
102
}
102
{ACAD_XDICTIONARY
360
40A
102
}
330
2A
100
AcDbVisualStyle
  2
Realistic
 70
     8
177
     2
291
     0
 71
     2
176
     1
 72
     3
176
     1
 73
     0
176
     1
 90
        2
176
     1
 40
0.6
176
     1
 41
30.0
176
     1
 62
     5
 63
     7
421
 16777215
176
     1
 74
     0
176
     1
 91
        0
176
     1
 64
     7
176
     1
 65
   257
176
     1
 75
     1
176
     1
175
     1
176
     1
 42
1.0
176
     1
 92
        8
176
     1
 66
   257
176
     1
 43
1.0
176
     1
 76
     1
176
     1
 77
     6
176
     1
 78
     2
176
     1
 67
     7
176
     1
 79
     3
176
     1
170
     0
176
     1
171
     0
176
     1
290
     0
176
     1
 93
       13
176
     1
 44
0.0
176
     1
173
     0
176
     1
  0
VISUALSTYLE
  5
42
102
{ACAD_REACTORS
330
2A
102
}
102
{ACAD_XDICTIONARY
360
428
102
}
330
2A
100
AcDbVisualStyle
  2
Shaded
 70
    27
177
     2
291
     0
 71
     2
176
     1
 72
     2
176
     1
 73
     1
176
     1
 90
        2
176
     1
 40
0.6
176
     1
 41
30.0
176
     1
 62
     5
 63
     7
421
 16777215
176
     1
 74
     0
176
     1
 91
        4
176
     1
 64
     7
176
     1
 65
   257
176
     1
 75
     1
176
     1
175
     1
176
     1
 42
1.0
176
     1
 92
        8
176
     1
 66
   257
176
     1
 43
1.0
176
     1
 76
     1
176
     1
 77
     6
176
     1
 78
     2
176
     1
 67
     8
425
  7895160
176
     1
 79
     3
176
     1
170
     0
176
     1
171
     0
176
     1
290
     0
176
     1
 93
        5
176
     1
 44
0.0
176
     1
173
     0
176
     1
  0
VISUALSTYLE
  5
41
102
{ACAD_REACTORS
330
2A
102
}
102
{ACAD_XDICTIONARY
360
426
102
}
330
2A
100
AcDbVisualStyle
  2
Shaded with edges
 70
    26
177
     2
291
     0
 71
     2
176
     1
 72
     2
176
     1
 73
     1
176
     1
 90
        2
176
     1
 40
0.6
176
     1
 41
30.0
176
     1
 62
     5
 63
     7
421
 16777215
176
     1
 74
     1
176
     1
 91
       10
176
     1
 64
     7
176
     1
 65
   257
176
     1
 75
     2
176
     1
175
     1
176
     1
 42
1.0
176
     1
 92
        8
176
     1
 66
   257
176
     1
 43
1.0
176
     1
 76
     1
176
     1
 77
     6
176
     1
 78
     2
176
     1
 67
     7
176
     1
 79
     3
176
     1
170
     0
176
     1
171
     0
176
     1
290
     0
176
     1
 93
        5
176
     1
 44
0.0
176
     1
173
     0
176
     1
  0
VISUALSTYLE
  5
3E
102
{ACAD_REACTORS
330
2A
102
}
102
{ACAD_XDICTIONARY
360
420
102
}
330
2A
100
AcDbVisualStyle
  2
Shades of Gray
 70
    23
177
     2
291
     0
 71
     2
176
     1
 72
     2
176
     1
 73
     3
176
     1
 90
        0
176
     1
 40
0.6
176
     1
 41
30.0
176
     1
 62
     5
 63
     7
421
 16777215
176
     1
 74
     2
176
     1
 91
        2
176
     1
 64
     7
176
     1
 65
     7
176
     1
 75
     1
176
     1
175
     1
176
     1
 42
40.0
176
     1
 92
        8
176
     1
 66
     7
176
     1
 43
1.0
176
     1
 76
     1
176
     1
 77
     6
176
     1
 78
     2
176
     1
 67
     7
176
     1
 79
     3
176
     1
170
     0
176
     1
171
     0
176
     1
290
     0
176
     1
 93
        1
176
     1
 44
0.0
176
     1
173
     0
176
     1
  0
VISUALSTYLE
  5
3F
102
{ACAD_REACTORS
330
2A
102
}
102
{ACAD_XDICTIONARY
360
422
102
}
330
2A
100
AcDbVisualStyle
  2
Sketchy
 70
    24
177
     2
291
     0
 71
     1
176
     1
 72
     2
176
     1
 73
     2
176
     1
 90
        0
176
     1
 40
0.6
176
     1
 41
30.0
176
     1
 62
     5
 63
     7
421
 16777215
176
     1
 74
     2
176
     1
 91
        2
176
     1
 64
     7
176
     1
 65
     7
176
     1
 75
     1
176
     1
175
     1
176
     1
 42
40.0
176
     1
 92
       11
176
     1
 66
     7
176
     1
 43
1.0
176
     1
 76
     1
176
     1
 77
     6
176
     1
 78
     2
176
     1
 67
     7
176
     1
 79
     6
176
     1
170
     0
176
     1
171
     0
176
     1
290
     0
176
     1
 93
        1
176
     1
 44
0.0
176
     1
173
     0
176
     1
  0
VISUALSTYLE
  5
37
102
{ACAD_REACTORS
330
2A
102
}
102
{ACAD_XDICTIONARY
360
412
102
}
330
2A
100
AcDbVisualStyle
  2
Thicken
 70
    13
177
     2
291
     1
 71
     2
176
     1
 72
     2
176
     1
 73
     0
176
     1
 90
        0
176
     1
 40
0.6
176
     1
 41
30.0
176
     1
 62
     5
 63
     7
421
 16777215
176
     1
 74
     1
176
     1
 91
        4
176
     1
 64
     7
176
     1
 65
   257
176
     1
 75
     1
176
     1
175
     1
176
     1
 42
1.0
176
     1
 92
       12
176
     1
 66
     7
176
     1
 43
1.0
176
     1
 76
     1
176
     1
 77
     6
176
     1
 78
     2
176
     1
 67
     7
176
     1
 79
     5
176
     1
170
     0
176
     1
171
     0
176
     1
290
     0
176
     1
 93
        1
176
     1
 44
0.0
176
     1
173
     0
176
     1
  0
VISUALSTYLE
  5
30
102
{ACAD_REACTORS
330
2A
102
}
102
{ACAD_XDICTIONARY
360
404
102
}
330
2A
100
AcDbVisualStyle
  2
Wireframe
 70
     5
177
     2
291
     0
 71
     0
176
     1
 72
     2
176
     1
 73
     0
176
     1
 90
        0
176
     1
 40
0.6
176
     1
 41
30.0
176
     1
 62
     5
 63
     7
421
 16777215
176
     1
 74
     1
176
     1
 91
        4
176
     1
 64
     7
176
     1
 65
   257
176
     1
 75
     1
176
     1
175
     1
176
     1
 42
1.0
176
     1
 92
        0
176
     1
 66
   257
176
     1
 43
1.0
176
     1
 76
     1
176
     1
 77
     6
176
     1
 78
     2
176
     1
 67
     7
176
     1
 79
     3
176
     1
170
     0
176
     1
171
     0
176
     1
290
     0
176
     1
 93
        1
176
     1
 44
0.0
176
     1
173
     0
176
     1
  0
VISUALSTYLE
  5
40
102
{ACAD_REACTORS
330
2A
102
}
102
{ACAD_XDICTIONARY
360
424
102
}
330
2A
100
AcDbVisualStyle
  2
X-Ray
 70
    25
177
     2
291
     0
 71
     2
176
     1
 72
     2
176
     1
 73
     1
176
     1
 90
        1
176
     1
 40
0.5
176
     1
 41
30.0
176
     1
 62
     5
 63
     7
421
 16777215
176
     1
 74
     1
176
     1
 91
        0
176
     1
 64
     7
176
     1
 65
   257
176
     1
 75
     1
176
     1
175
     1
176
     1
 42
1.0
176
     1
 92
        8
176
     1
 66
     7
176
     1
 43
1.0
176
     1
 76
     1
176
     1
 77
     6
176
     1
 78
     2
176
     1
 67
     7
176
     1
 79
     3
176
     1
170
     0
176
     1
171
     0
176
     1
290
     0
176
     1
 93
       13
176
     1
 44
0.0
176
     1
173
     0
176
     1
  0
DICTIONARYVAR
  5
3F9
102
{ACAD_REACTORS
330
3F8
102
}
330
3F8
100
DictionaryVariables
280
     0
  1
1:1
  0
DICTIONARYVAR
  5
42E
102
{ACAD_REACTORS
330
3F8
102
}
330
3F8
100
DictionaryVariables
280
     0
  1
Standard
  0
DICTIONARYVAR
  5
42D
102
{ACAD_REACTORS
330
3F8
102
}
330
3F8
100
DictionaryVariables
280
     0
  1
Standard
  0
DICTIONARY
  5
42A
330
6A
100
AcDbDictionary
280
     1
281
     1
  3
ACAD_ROUNDTRIP_2008_TABLESTYLE_CELLSTYLEMAP
360
42B
  0
DICTIONARY
  5
402
330
2F
100
AcDbDictionary
280
     1
281
     1
  3
ACAD_XREC_ROUNDTRIP
360
403
  0
DICTIONARY
  5
408
330
32
100
AcDbDictionary
280
     1
281
     1
  3
ACAD_XREC_ROUNDTRIP
360
409
  0
DICTIONARY
  5
410
330
36
100
AcDbDictionary
280
     1
281
     1
  3
ACAD_XREC_ROUNDTRIP
360
411
  0
DICTIONARY
  5
418
330
3A
100
AcDbDictionary
280
     1
281
     1
  3
ACAD_XREC_ROUNDTRIP
360
419
  0
DICTIONARY
  5
40C
330
34
100
AcDbDictionary
280
     1
281
     1
  3
ACAD_XREC_ROUNDTRIP
360
40D
  0
DICTIONARY
  5
40E
330
35
100
AcDbDictionary
280
     1
281
     1
  3
ACAD_XREC_ROUNDTRIP
360
40F
  0
DICTIONARY
  5
41E
330
3D
100
AcDbDictionary
280
     1
281
     1
  3
ACAD_XREC_ROUNDTRIP
360
41F
  0
DICTIONARY
  5
416
330
39
100
AcDbDictionary
280
     1
281
     1
  3
ACAD_XREC_ROUNDTRIP
360
417
  0
DICTIONARY
  5
3FA
330
2B
100
AcDbDictionary
280
     1
281
     1
  3
ACAD_XREC_ROUNDTRIP
360
3FB
  0
DICTIONARY
  5
3FC
330
2C
100
AcDbDictionary
280
     1
281
     1
  3
ACAD_XREC_ROUNDTRIP
360
3FD
  0
DICTIONARY
  5
3FE
330
2D
100
AcDbDictionary
280
     1
281
     1
  3
ACAD_XREC_ROUNDTRIP
360
3FF
  0
DICTIONARY
  5
400
330
2E
100
AcDbDictionary
280
     1
281
     1
  3
ACAD_XREC_ROUNDTRIP
360
401
  0
DICTIONARY
  5
406
330
31
100
AcDbDictionary
280
     1
281
     1
  3
ACAD_XREC_ROUNDTRIP
360
407
  0
DICTIONARY
  5
41A
330
3B
100
AcDbDictionary
280
     1
281
     1
  3
ACAD_XREC_ROUNDTRIP
360
41B
  0
DICTIONARY
  5
414
330
38
100
AcDbDictionary
280
     1
281
     1
  3
ACAD_XREC_ROUNDTRIP
360
415
  0
DICTIONARY
  5
41C
330
3C
100
AcDbDictionary
280
     1
281
     1
  3
ACAD_XREC_ROUNDTRIP
360
41D
  0
DICTIONARY
  5
40A
330
33
100
AcDbDictionary
280
     1
281
     1
  3
ACAD_XREC_ROUNDTRIP
360
40B
  0
DICTIONARY
  5
428
330
42
100
AcDbDictionary
280
     1
281
     1
  3
ACAD_XREC_ROUNDTRIP
360
429
  0
DICTIONARY
  5
426
330
41
100
AcDbDictionary
280
     1
281
     1
  3
ACAD_XREC_ROUNDTRIP
360
427
  0
DICTIONARY
  5
420
330
3E
100
AcDbDictionary
280
     1
281
     1
  3
ACAD_XREC_ROUNDTRIP
360
421
  0
DICTIONARY
  5
422
330
3F
100
AcDbDictionary
280
     1
281
     1
  3
ACAD_XREC_ROUNDTRIP
360
423
  0
DICTIONARY
  5
412
330
37
100
AcDbDictionary
280
     1
281
     1
  3
ACAD_XREC_ROUNDTRIP
360
413
  0
DICTIONARY
  5
404
330
30
100
AcDbDictionary
280
     1
281
     1
  3
ACAD_XREC_ROUNDTRIP
360
405
  0
DICTIONARY
  5
424
330
40
100
AcDbDictionary
280
     1
281
     1
  3
ACAD_XREC_ROUNDTRIP
360
425
  0
CELLSTYLEMAP
  5
42B
102
{ACAD_REACTORS
330
42A
102
}
330
42A
100
AcDbCellStyleMap
 90
        3
300
CELLSTYLE
  1
TABLEFORMAT_BEGIN
 90
        5
170
     1
 91
        0
 92
    32768
 62
   257
 93
        1
300
CONTENTFORMAT
  1
CONTENTFORMAT_BEGIN
 90
        0
 91
        0
 92
        4
 93
        0
300

 40
0.0
140
1.0
 94
        5
 62
     0
340
11
144
0.25
309
CONTENTFORMAT_END
171
     1
301
MARGIN
  1
CELLMARGIN_BEGIN
 40
0.06
 40
0.06
 40
0.06
 40
0.06
 40
0.06
 40
0.06
309
CELLMARGIN_END
 94
        6
 95
        1
302
GRIDFORMAT
  1
GRIDFORMAT_BEGIN
 90
        0
 91
        1
 62
     0
 92
       -2
340
14
 93
        0
 40
0.045
309
GRIDFORMAT_END
 95
        2
302
GRIDFORMAT
  1
GRIDFORMAT_BEGIN
 90
        0
 91
        1
 62
     0
 92
       -2
340
14
 93
        0
 40
0.045
309
GRIDFORMAT_END
 95
        4
302
GRIDFORMAT
  1
GRIDFORMAT_BEGIN
 90
        0
 91
        1
 62
     0
 92
       -2
340
14
 93
        0
 40
0.045
309
GRIDFORMAT_END
 95
        8
302
GRIDFORMAT
  1
GRIDFORMAT_BEGIN
 90
        0
 91
        1
 62
     0
 92
       -2
340
14
 93
        0
 40
0.045
309
GRIDFORMAT_END
 95
       16
302
GRIDFORMAT
  1
GRIDFORMAT_BEGIN
 90
        0
 91
        1
 62
     0
 92
       -2
340
14
 93
        0
 40
0.045
309
GRIDFORMAT_END
 95
       32
302
GRIDFORMAT
  1
GRIDFORMAT_BEGIN
 90
        0
 91
        1
 62
     0
 92
       -2
340
14
 93
        0
 40
0.045
309
GRIDFORMAT_END
309
TABLEFORMAT_END
  1
CELLSTYLE_BEGIN
 90
        1
 91
        1
300
_TITLE
309
CELLSTYLE_END
300
CELLSTYLE
  1
TABLEFORMAT_BEGIN
 90
        5
170
     1
 91
        0
 92
        0
 62
   257
 93
        1
300
CONTENTFORMAT
  1
CONTENTFORMAT_BEGIN
 90
        0
 91
        0
 92
        4
 93
        0
300

 40
0.0
140
1.0
 94
        5
 62
     0
340
11
144
0.18
309
CONTENTFORMAT_END
171
     1
301
MARGIN
  1
CELLMARGIN_BEGIN
 40
0.06
 40
0.06
 40
0.06
 40
0.06
 40
0.06
 40
0.06
309
CELLMARGIN_END
 94
        6
 95
        1
302
GRIDFORMAT
  1
GRIDFORMAT_BEGIN
 90
        0
 91
        1
 62
     0
 92
       -2
340
14
 93
        0
 40
0.045
309
GRIDFORMAT_END
 95
        2
302
GRIDFORMAT
  1
GRIDFORMAT_BEGIN
 90
        0
 91
        1
 62
     0
 92
       -2
340
14
 93
        0
 40
0.045
309
GRIDFORMAT_END
 95
        4
302
GRIDFORMAT
  1
GRIDFORMAT_BEGIN
 90
        0
 91
        1
 62
     0
 92
       -2
340
14
 93
        0
 40
0.045
309
GRIDFORMAT_END
 95
        8
302
GRIDFORMAT
  1
GRIDFORMAT_BEGIN
 90
        0
 91
        1
 62
     0
 92
       -2
340
14
 93
        0
 40
0.045
309
GRIDFORMAT_END
 95
       16
302
GRIDFORMAT
  1
GRIDFORMAT_BEGIN
 90
        0
 91
        1
 62
     0
 92
       -2
340
14
 93
        0
 40
0.045
309
GRIDFORMAT_END
 95
       32
302
GRIDFORMAT
  1
GRIDFORMAT_BEGIN
 90
        0
 91
        1
 62
     0
 92
       -2
340
14
 93
        0
 40
0.045
309
GRIDFORMAT_END
309
TABLEFORMAT_END
  1
CELLSTYLE_BEGIN
 90
        2
 91
        1
300
_HEADER
309
CELLSTYLE_END
300
CELLSTYLE
  1
TABLEFORMAT_BEGIN
 90
        5
170
     1
 91
        0
 92
        0
 62
   257
 93
        1
300
CONTENTFORMAT
  1
CONTENTFORMAT_BEGIN
 90
        0
 91
        0
 92
        4
 93
        0
300

 40
0.0
140
1.0
 94
        2
 62
     0
340
11
144
0.18
309
CONTENTFORMAT_END
171
     1
301
MARGIN
  1
CELLMARGIN_BEGIN
 40
0.06
 40
0.06
 40
0.06
 40
0.06
 40
0.06
 40
0.06
309
CELLMARGIN_END
 94
        6
 95
        1
302
GRIDFORMAT
  1
GRIDFORMAT_BEGIN
 90
        0
 91
        1
 62
     0
 92
       -2
340
14
 93
        0
 40
0.045
309
GRIDFORMAT_END
 95
        2
302
GRIDFORMAT
  1
GRIDFORMAT_BEGIN
 90
        0
 91
        1
 62
     0
 92
       -2
340
14
 93
        0
 40
0.045
309
GRIDFORMAT_END
 95
        4
302
GRIDFORMAT
  1
GRIDFORMAT_BEGIN
 90
        0
 91
        1
 62
     0
 92
       -2
340
14
 93
        0
 40
0.045
309
GRIDFORMAT_END
 95
        8
302
GRIDFORMAT
  1
GRIDFORMAT_BEGIN
 90
        0
 91
        1
 62
     0
 92
       -2
340
14
 93
        0
 40
0.045
309
GRIDFORMAT_END
 95
       16
302
GRIDFORMAT
  1
GRIDFORMAT_BEGIN
 90
        0
 91
        1
 62
     0
 92
       -2
340
14
 93
        0
 40
0.045
309
GRIDFORMAT_END
 95
       32
302
GRIDFORMAT
  1
GRIDFORMAT_BEGIN
 90
        0
 91
        1
 62
     0
 92
       -2
340
14
 93
        0
 40
0.045
309
GRIDFORMAT_END
309
TABLEFORMAT_END
  1
CELLSTYLE_BEGIN
 90
        3
 91
        2
300
_DATA
309
CELLSTYLE_END
  0
XRECORD
  5
403
102
{ACAD_REACTORS
330
402
102
}
330
402
100
AcDbXrecord
280
     1
102
RTVSPost2010Prop28
280
     1
102
RTVSPost2010PropOp28
 70
     1
102
RTVSPost2010Prop29
280
     1
102
RTVSPost2010PropOp29
 70
     1
102
RTVSPost2010Prop30
280
     0
102
RTVSPost2010PropOp30
 70
     1
102
RTVSPost2010Prop31
280
     0
102
RTVSPost2010PropOp31
 70
     1
102
RTVSPost2010Prop32
280
     0
102
RTVSPost2010PropOp32
 70
     1
102
RTVSPost2010Prop33
280
     0
102
RTVSPost2010PropOp33
 70
     1
102
RTVSPost2010Prop34
280
     0
102
RTVSPost2010PropOp34
 70
     1
102
RTVSPost2010Prop35
280
     0
102
RTVSPost2010PropOp35
 70
     1
102
RTVSPost2010Prop36
280
     0
102
RTVSPost2010PropOp36
 70
     1
102
RTVSPost2010Prop37
 90
       50
102
RTVSPost2010PropOp37
 70
     1
102
RTVSPost2010Prop38
140
0.0
102
RTVSPost2010PropOp38
 70
     1
102
RTVSPost2010Prop39
140
1.0
102
RTVSPost2010PropOp39
 70
     1
102
RTVSPost2010Prop40
 90
        0
102
RTVSPost2010PropOp40
 70
     1
102
RTVSPost2010Prop41ColorIndex
 90
       18
102
RTVSPost2010Prop41ColorRGB
 90
        0
102
RTVSPost2010PropOp41
 70
     1
102
RTVSPost2010Prop42
 90
       50
102
RTVSPost2010PropOp42
 70
     1
102
RTVSPost2010Prop43
 90
        3
102
RTVSPost2010PropOp43
 70
     1
102
RTVSPost2010Prop44ColorIndex
 90
        5
102
RTVSPost2010Prop44ColorRGB
 90
      255
102
RTVSPost2010PropOp44
 70
     1
102
RTVSPost2010Prop45
280
     0
102
RTVSPost2010PropOp45
 70
     1
102
RTVSPost2010Prop46
 90
       50
102
RTVSPost2010PropOp46
 70
     1
102
RTVSPost2010Prop47
 90
       50
102
RTVSPost2010PropOp47
 70
     1
102
RTVSPost2010Prop48
 90
       50
102
RTVSPost2010PropOp48
 70
     1
102
RTVSPost2010Prop49
280
     0
102
RTVSPost2010PropOp49
 70
     1
102
RTVSPost2010Prop50
 90
       50
102
RTVSPost2010PropOp50
 70
     1
102
RTVSPost2010Prop51ColorIndex
 90
      256
102
RTVSPost2010Prop51ColorRGB
 90
-16777216
102
RTVSPost2010PropOp51
 70
     0
102
RTVSPost2010Prop52
140
1.0
102
RTVSPost2010PropOp52
 70
     0
102
RTVSPost2010Prop53
 90
        2
102
RTVSPost2010PropOp53
 70
     1
102
RTVSPost2010Prop54
  1
strokes_ogs.tif
102
RTVSPost2010PropOp54
 70
     1
102
RTVSPost2010Prop55
280
     0
102
RTVSPost2010PropOp55
 70
     1
102
RTVSPost2010Prop56
140
1.0
102
RTVSPost2010PropOp56
 70
     1
102
RTVSPost2010Prop57
140
1.0
102
RTVSPost2010PropOp57
 70
     1
  0
XRECORD
  5
409
102
{ACAD_REACTORS
330
408
102
}
330
408
100
AcDbXrecord
280
     1
102
RTVSPost2010Prop28
280
     0
102
RTVSPost2010PropOp28
 70
     1
102
RTVSPost2010Prop29
280
     1
102
RTVSPost2010PropOp29
 70
     1
102
RTVSPost2010Prop30
280
     1
102
RTVSPost2010PropOp30
 70
     1
102
RTVSPost2010Prop31
280
     0
102
RTVSPost2010PropOp31
 70
     1
102
RTVSPost2010Prop32
280
     0
102
RTVSPost2010PropOp32
 70
     1
102
RTVSPost2010Prop33
280
     0
102
RTVSPost2010PropOp33
 70
     1
102
RTVSPost2010Prop34
280
     0
102
RTVSPost2010PropOp34
 70
     1
102
RTVSPost2010Prop35
280
     0
102
RTVSPost2010PropOp35
 70
     1
102
RTVSPost2010Prop36
280
     0
102
RTVSPost2010PropOp36
 70
     1
102
RTVSPost2010Prop37
 90
       50
102
RTVSPost2010PropOp37
 70
     1
102
RTVSPost2010Prop38
140
0.0
102
RTVSPost2010PropOp38
 70
     1
102
RTVSPost2010Prop39
140
1.0
102
RTVSPost2010PropOp39
 70
     1
102
RTVSPost2010Prop40
 90
        0
102
RTVSPost2010PropOp40
 70
     1
102
RTVSPost2010Prop41ColorIndex
 90
       18
102
RTVSPost2010Prop41ColorRGB
 90
        0
102
RTVSPost2010PropOp41
 70
     1
102
RTVSPost2010Prop42
 90
       50
102
RTVSPost2010PropOp42
 70
     1
102
RTVSPost2010Prop43
 90
        3
102
RTVSPost2010PropOp43
 70
     1
102
RTVSPost2010Prop44ColorIndex
 90
        5
102
RTVSPost2010Prop44ColorRGB
 90
      255
102
RTVSPost2010PropOp44
 70
     1
102
RTVSPost2010Prop45
280
     0
102
RTVSPost2010PropOp45
 70
     1
102
RTVSPost2010Prop46
 90
       50
102
RTVSPost2010PropOp46
 70
     1
102
RTVSPost2010Prop47
 90
       50
102
RTVSPost2010PropOp47
 70
     1
102
RTVSPost2010Prop48
 90
       50
102
RTVSPost2010PropOp48
 70
     1
102
RTVSPost2010Prop49
280
     0
102
RTVSPost2010PropOp49
 70
     1
102
RTVSPost2010Prop50
 90
       50
102
RTVSPost2010PropOp50
 70
     1
102
RTVSPost2010Prop51ColorIndex
 90
      256
102
RTVSPost2010Prop51ColorRGB
 90
-16777216
102
RTVSPost2010PropOp51
 70
     0
102
RTVSPost2010Prop52
140
1.0
102
RTVSPost2010PropOp52
 70
     0
102
RTVSPost2010Prop53
 90
        2
102
RTVSPost2010PropOp53
 70
     1
102
RTVSPost2010Prop54
  1
strokes_ogs.tif
102
RTVSPost2010PropOp54
 70
     1
102
RTVSPost2010Prop55
280
     0
102
RTVSPost2010PropOp55
 70
     1
102
RTVSPost2010Prop56
140
1.0
102
RTVSPost2010PropOp56
 70
     1
102
RTVSPost2010Prop57
140
1.0
102
RTVSPost2010PropOp57
 70
     1
  0
XRECORD
  5
411
102
{ACAD_REACTORS
330
410
102
}
330
410
100
AcDbXrecord
280
     1
102
RTVSPost2010Prop28
280
     0
102
RTVSPost2010PropOp28
 70
     1
102
RTVSPost2010Prop29
280
     1
102
RTVSPost2010PropOp29
 70
     1
102
RTVSPost2010Prop30
280
     1
102
RTVSPost2010PropOp30
 70
     1
102
RTVSPost2010Prop31
280
     0
102
RTVSPost2010PropOp31
 70
     1
102
RTVSPost2010Prop32
280
     0
102
RTVSPost2010PropOp32
 70
     1
102
RTVSPost2010Prop33
280
     0
102
RTVSPost2010PropOp33
 70
     1
102
RTVSPost2010Prop34
280
     0
102
RTVSPost2010PropOp34
 70
     1
102
RTVSPost2010Prop35
280
     0
102
RTVSPost2010PropOp35
 70
     1
102
RTVSPost2010Prop36
280
     0
102
RTVSPost2010PropOp36
 70
     1
102
RTVSPost2010Prop37
 90
       50
102
RTVSPost2010PropOp37
 70
     1
102
RTVSPost2010Prop38
140
0.0
102
RTVSPost2010PropOp38
 70
     1
102
RTVSPost2010Prop39
140
1.0
102
RTVSPost2010PropOp39
 70
     1
102
RTVSPost2010Prop40
 90
        0
102
RTVSPost2010PropOp40
 70
     1
102
RTVSPost2010Prop41ColorIndex
 90
       18
102
RTVSPost2010Prop41ColorRGB
 90
        0
102
RTVSPost2010PropOp41
 70
     1
102
RTVSPost2010Prop42
 90
       50
102
RTVSPost2010PropOp42
 70
     1
102
RTVSPost2010Prop43
 90
        3
102
RTVSPost2010PropOp43
 70
     1
102
RTVSPost2010Prop44ColorIndex
 90
        5
102
RTVSPost2010Prop44ColorRGB
 90
      255
102
RTVSPost2010PropOp44
 70
     1
102
RTVSPost2010Prop45
280
     0
102
RTVSPost2010PropOp45
 70
     1
102
RTVSPost2010Prop46
 90
       50
102
RTVSPost2010PropOp46
 70
     1
102
RTVSPost2010Prop47
 90
       50
102
RTVSPost2010PropOp47
 70
     1
102
RTVSPost2010Prop48
 90
       50
102
RTVSPost2010PropOp48
 70
     1
102
RTVSPost2010Prop49
280
     0
102
RTVSPost2010PropOp49
 70
     1
102
RTVSPost2010Prop50
 90
       50
102
RTVSPost2010PropOp50
 70
     1
102
RTVSPost2010Prop51ColorIndex
 90
      256
102
RTVSPost2010Prop51ColorRGB
 90
-16777216
102
RTVSPost2010PropOp51
 70
     0
102
RTVSPost2010Prop52
140
1.0
102
RTVSPost2010PropOp52
 70
     0
102
RTVSPost2010Prop53
 90
        2
102
RTVSPost2010PropOp53
 70
     1
102
RTVSPost2010Prop54
  1
strokes_ogs.tif
102
RTVSPost2010PropOp54
 70
     1
102
RTVSPost2010Prop55
280
     0
102
RTVSPost2010PropOp55
 70
     1
102
RTVSPost2010Prop56
140
1.0
102
RTVSPost2010PropOp56
 70
     1
102
RTVSPost2010Prop57
140
1.0
102
RTVSPost2010PropOp57
 70
     1
  0
XRECORD
  5
419
102
{ACAD_REACTORS
330
418
102
}
330
418
100
AcDbXrecord
280
     1
102
RTVSPost2010Prop28
280
     0
102
RTVSPost2010PropOp28
 70
     1
102
RTVSPost2010Prop29
280
     1
102
RTVSPost2010PropOp29
 70
     1
102
RTVSPost2010Prop30
280
     1
102
RTVSPost2010PropOp30
 70
     1
102
RTVSPost2010Prop31
280
     0
102
RTVSPost2010PropOp31
 70
     1
102
RTVSPost2010Prop32
280
     0
102
RTVSPost2010PropOp32
 70
     1
102
RTVSPost2010Prop33
280
     0
102
RTVSPost2010PropOp33
 70
     1
102
RTVSPost2010Prop34
280
     0
102
RTVSPost2010PropOp34
 70
     1
102
RTVSPost2010Prop35
280
     0
102
RTVSPost2010PropOp35
 70
     1
102
RTVSPost2010Prop36
280
     0
102
RTVSPost2010PropOp36
 70
     1
102
RTVSPost2010Prop37
 90
       50
102
RTVSPost2010PropOp37
 70
     1
102
RTVSPost2010Prop38
140
0.0
102
RTVSPost2010PropOp38
 70
     1
102
RTVSPost2010Prop39
140
1.0
102
RTVSPost2010PropOp39
 70
     1
102
RTVSPost2010Prop40
 90
        0
102
RTVSPost2010PropOp40
 70
     1
102
RTVSPost2010Prop41ColorIndex
 90
       18
102
RTVSPost2010Prop41ColorRGB
 90
        0
102
RTVSPost2010PropOp41
 70
     1
102
RTVSPost2010Prop42
 90
       50
102
RTVSPost2010PropOp42
 70
     1
102
RTVSPost2010Prop43
 90
        3
102
RTVSPost2010PropOp43
 70
     1
102
RTVSPost2010Prop44ColorIndex
 90
        5
102
RTVSPost2010Prop44ColorRGB
 90
      255
102
RTVSPost2010PropOp44
 70
     1
102
RTVSPost2010Prop45
280
     0
102
RTVSPost2010PropOp45
 70
     1
102
RTVSPost2010Prop46
 90
       50
102
RTVSPost2010PropOp46
 70
     1
102
RTVSPost2010Prop47
 90
       50
102
RTVSPost2010PropOp47
 70
     1
102
RTVSPost2010Prop48
 90
       50
102
RTVSPost2010PropOp48
 70
     1
102
RTVSPost2010Prop49
280
     0
102
RTVSPost2010PropOp49
 70
     1
102
RTVSPost2010Prop50
 90
       50
102
RTVSPost2010PropOp50
 70
     1
102
RTVSPost2010Prop51ColorIndex
 90
      256
102
RTVSPost2010Prop51ColorRGB
 90
-16777216
102
RTVSPost2010PropOp51
 70
     0
102
RTVSPost2010Prop52
140
1.0
102
RTVSPost2010PropOp52
 70
     0
102
RTVSPost2010Prop53
 90
        2
102
RTVSPost2010PropOp53
 70
     1
102
RTVSPost2010Prop54
  1
strokes_ogs.tif
102
RTVSPost2010PropOp54
 70
     1
102
RTVSPost2010Prop55
280
     0
102
RTVSPost2010PropOp55
 70
     1
102
RTVSPost2010Prop56
140
1.0
102
RTVSPost2010PropOp56
 70
     1
102
RTVSPost2010Prop57
140
1.0
102
RTVSPost2010PropOp57
 70
     1
  0
XRECORD
  5
40D
102
{ACAD_REACTORS
330
40C
102
}
330
40C
100
AcDbXrecord
280
     1
102
RTVSPost2010Prop28
280
     0
102
RTVSPost2010PropOp28
 70
     1
102
RTVSPost2010Prop29
280
     1
102
RTVSPost2010PropOp29
 70
     1
102
RTVSPost2010Prop30
280
     1
102
RTVSPost2010PropOp30
 70
     1
102
RTVSPost2010Prop31
280
     0
102
RTVSPost2010PropOp31
 70
     1
102
RTVSPost2010Prop32
280
     0
102
RTVSPost2010PropOp32
 70
     1
102
RTVSPost2010Prop33
280
     0
102
RTVSPost2010PropOp33
 70
     1
102
RTVSPost2010Prop34
280
     0
102
RTVSPost2010PropOp34
 70
     1
102
RTVSPost2010Prop35
280
     0
102
RTVSPost2010PropOp35
 70
     1
102
RTVSPost2010Prop36
280
     0
102
RTVSPost2010PropOp36
 70
     1
102
RTVSPost2010Prop37
 90
       50
102
RTVSPost2010PropOp37
 70
     1
102
RTVSPost2010Prop38
140
0.0
102
RTVSPost2010PropOp38
 70
     1
102
RTVSPost2010Prop39
140
1.0
102
RTVSPost2010PropOp39
 70
     1
102
RTVSPost2010Prop40
 90
        0
102
RTVSPost2010PropOp40
 70
     1
102
RTVSPost2010Prop41ColorIndex
 90
       18
102
RTVSPost2010Prop41ColorRGB
 90
        0
102
RTVSPost2010PropOp41
 70
     1
102
RTVSPost2010Prop42
 90
       50
102
RTVSPost2010PropOp42
 70
     1
102
RTVSPost2010Prop43
 90
        3
102
RTVSPost2010PropOp43
 70
     1
102
RTVSPost2010Prop44ColorIndex
 90
        5
102
RTVSPost2010Prop44ColorRGB
 90
      255
102
RTVSPost2010PropOp44
 70
     1
102
RTVSPost2010Prop45
280
     0
102
RTVSPost2010PropOp45
 70
     1
102
RTVSPost2010Prop46
 90
       50
102
RTVSPost2010PropOp46
 70
     1
102
RTVSPost2010Prop47
 90
       50
102
RTVSPost2010PropOp47
 70
     1
102
RTVSPost2010Prop48
 90
       50
102
RTVSPost2010PropOp48
 70
     1
102
RTVSPost2010Prop49
280
     0
102
RTVSPost2010PropOp49
 70
     1
102
RTVSPost2010Prop50
 90
       50
102
RTVSPost2010PropOp50
 70
     1
102
RTVSPost2010Prop51ColorIndex
 90
      256
102
RTVSPost2010Prop51ColorRGB
 90
-16777216
102
RTVSPost2010PropOp51
 70
     0
102
RTVSPost2010Prop52
140
1.0
102
RTVSPost2010PropOp52
 70
     0
102
RTVSPost2010Prop53
 90
        2
102
RTVSPost2010PropOp53
 70
     1
102
RTVSPost2010Prop54
  1
strokes_ogs.tif
102
RTVSPost2010PropOp54
 70
     1
102
RTVSPost2010Prop55
280
     0
102
RTVSPost2010PropOp55
 70
     1
102
RTVSPost2010Prop56
140
1.0
102
RTVSPost2010PropOp56
 70
     1
102
RTVSPost2010Prop57
140
1.0
102
RTVSPost2010PropOp57
 70
     1
  0
XRECORD
  5
40F
102
{ACAD_REACTORS
330
40E
102
}
330
40E
100
AcDbXrecord
280
     1
102
RTVSPost2010Prop28
280
     0
102
RTVSPost2010PropOp28
 70
     1
102
RTVSPost2010Prop29
280
     1
102
RTVSPost2010PropOp29
 70
     1
102
RTVSPost2010Prop30
280
     1
102
RTVSPost2010PropOp30
 70
     1
102
RTVSPost2010Prop31
280
     0
102
RTVSPost2010PropOp31
 70
     1
102
RTVSPost2010Prop32
280
     0
102
RTVSPost2010PropOp32
 70
     1
102
RTVSPost2010Prop33
280
     0
102
RTVSPost2010PropOp33
 70
     1
102
RTVSPost2010Prop34
280
     0
102
RTVSPost2010PropOp34
 70
     1
102
RTVSPost2010Prop35
280
     0
102
RTVSPost2010PropOp35
 70
     1
102
RTVSPost2010Prop36
280
     0
102
RTVSPost2010PropOp36
 70
     1
102
RTVSPost2010Prop37
 90
       50
102
RTVSPost2010PropOp37
 70
     1
102
RTVSPost2010Prop38
140
0.0
102
RTVSPost2010PropOp38
 70
     1
102
RTVSPost2010Prop39
140
1.0
102
RTVSPost2010PropOp39
 70
     1
102
RTVSPost2010Prop40
 90
        0
102
RTVSPost2010PropOp40
 70
     1
102
RTVSPost2010Prop41ColorIndex
 90
       18
102
RTVSPost2010Prop41ColorRGB
 90
        0
102
RTVSPost2010PropOp41
 70
     1
102
RTVSPost2010Prop42
 90
       50
102
RTVSPost2010PropOp42
 70
     1
102
RTVSPost2010Prop43
 90
        3
102
RTVSPost2010PropOp43
 70
     1
102
RTVSPost2010Prop44ColorIndex
 90
        5
102
RTVSPost2010Prop44ColorRGB
 90
      255
102
RTVSPost2010PropOp44
 70
     1
102
RTVSPost2010Prop45
280
     0
102
RTVSPost2010PropOp45
 70
     1
102
RTVSPost2010Prop46
 90
       50
102
RTVSPost2010PropOp46
 70
     1
102
RTVSPost2010Prop47
 90
       50
102
RTVSPost2010PropOp47
 70
     1
102
RTVSPost2010Prop48
 90
       50
102
RTVSPost2010PropOp48
 70
     1
102
RTVSPost2010Prop49
280
     0
102
RTVSPost2010PropOp49
 70
     1
102
RTVSPost2010Prop50
 90
       50
102
RTVSPost2010PropOp50
 70
     1
102
RTVSPost2010Prop51ColorIndex
 90
      256
102
RTVSPost2010Prop51ColorRGB
 90
-16777216
102
RTVSPost2010PropOp51
 70
     0
102
RTVSPost2010Prop52
140
1.0
102
RTVSPost2010PropOp52
 70
     0
102
RTVSPost2010Prop53
 90
        2
102
RTVSPost2010PropOp53
 70
     1
102
RTVSPost2010Prop54
  1
strokes_ogs.tif
102
RTVSPost2010PropOp54
 70
     1
102
RTVSPost2010Prop55
280
     0
102
RTVSPost2010PropOp55
 70
     1
102
RTVSPost2010Prop56
140
1.0
102
RTVSPost2010PropOp56
 70
     1
102
RTVSPost2010Prop57
140
1.0
102
RTVSPost2010PropOp57
 70
     1
  0
XRECORD
  5
41F
102
{ACAD_REACTORS
330
41E
102
}
330
41E
100
AcDbXrecord
280
     1
102
RTVSPost2010Prop28
280
     0
102
RTVSPost2010PropOp28
 70
     0
102
RTVSPost2010Prop29
280
     1
102
RTVSPost2010PropOp29
 70
     0
102
RTVSPost2010Prop30
280
     1
102
RTVSPost2010PropOp30
 70
     0
102
RTVSPost2010Prop31
280
     0
102
RTVSPost2010PropOp31
 70
     0
102
RTVSPost2010Prop32
280
     0
102
RTVSPost2010PropOp32
 70
     0
102
RTVSPost2010Prop33
280
     0
102
RTVSPost2010PropOp33
 70
     0
102
RTVSPost2010Prop34
280
     0
102
RTVSPost2010PropOp34
 70
     0
102
RTVSPost2010Prop35
280
     0
102
RTVSPost2010PropOp35
 70
     0
102
RTVSPost2010Prop36
280
     0
102
RTVSPost2010PropOp36
 70
     0
102
RTVSPost2010Prop37
 90
       50
102
RTVSPost2010PropOp37
 70
     0
102
RTVSPost2010Prop38
140
0.0
102
RTVSPost2010PropOp38
 70
     0
102
RTVSPost2010Prop39
140
1.0
102
RTVSPost2010PropOp39
 70
     0
102
RTVSPost2010Prop40
 90
        0
102
RTVSPost2010PropOp40
 70
     0
102
RTVSPost2010Prop41ColorIndex
 90
       18
102
RTVSPost2010Prop41ColorRGB
 90
        0
102
RTVSPost2010PropOp41
 70
     0
102
RTVSPost2010Prop42
 90
       50
102
RTVSPost2010PropOp42
 70
     0
102
RTVSPost2010Prop43
 90
        3
102
RTVSPost2010PropOp43
 70
     0
102
RTVSPost2010Prop44ColorIndex
 90
        5
102
RTVSPost2010Prop44ColorRGB
 90
      255
102
RTVSPost2010PropOp44
 70
     0
102
RTVSPost2010Prop45
280
     0
102
RTVSPost2010PropOp45
 70
     0
102
RTVSPost2010Prop46
 90
       50
102
RTVSPost2010PropOp46
 70
     0
102
RTVSPost2010Prop47
 90
       50
102
RTVSPost2010PropOp47
 70
     0
102
RTVSPost2010Prop48
 90
       50
102
RTVSPost2010PropOp48
 70
     0
102
RTVSPost2010Prop49
280
     0
102
RTVSPost2010PropOp49
 70
     0
102
RTVSPost2010Prop50
 90
       50
102
RTVSPost2010PropOp50
 70
     0
102
RTVSPost2010Prop51ColorIndex
 90
      256
102
RTVSPost2010Prop51ColorRGB
 90
-16777216
102
RTVSPost2010PropOp51
 70
     0
102
RTVSPost2010Prop52
140
1.0
102
RTVSPost2010PropOp52
 70
     0
102
RTVSPost2010Prop53
 90
        2
102
RTVSPost2010PropOp53
 70
     0
102
RTVSPost2010Prop54
  1
strokes_ogs.tif
102
RTVSPost2010PropOp54
 70
     0
102
RTVSPost2010Prop55
280
     0
102
RTVSPost2010PropOp55
 70
     0
102
RTVSPost2010Prop56
140
1.0
102
RTVSPost2010PropOp56
 70
     0
102
RTVSPost2010Prop57
140
1.0
102
RTVSPost2010PropOp57
 70
     0
  0
XRECORD
  5
417
102
{ACAD_REACTORS
330
416
102
}
330
416
100
AcDbXrecord
280
     1
102
RTVSPost2010Prop28
280
     0
102
RTVSPost2010PropOp28
 70
     1
102
RTVSPost2010Prop29
280
     1
102
RTVSPost2010PropOp29
 70
     1
102
RTVSPost2010Prop30
280
     1
102
RTVSPost2010PropOp30
 70
     1
102
RTVSPost2010Prop31
280
     0
102
RTVSPost2010PropOp31
 70
     1
102
RTVSPost2010Prop32
280
     0
102
RTVSPost2010PropOp32
 70
     1
102
RTVSPost2010Prop33
280
     0
102
RTVSPost2010PropOp33
 70
     1
102
RTVSPost2010Prop34
280
     0
102
RTVSPost2010PropOp34
 70
     1
102
RTVSPost2010Prop35
280
     0
102
RTVSPost2010PropOp35
 70
     1
102
RTVSPost2010Prop36
280
     0
102
RTVSPost2010PropOp36
 70
     1
102
RTVSPost2010Prop37
 90
       50
102
RTVSPost2010PropOp37
 70
     1
102
RTVSPost2010Prop38
140
0.0
102
RTVSPost2010PropOp38
 70
     1
102
RTVSPost2010Prop39
140
1.0
102
RTVSPost2010PropOp39
 70
     1
102
RTVSPost2010Prop40
 90
        0
102
RTVSPost2010PropOp40
 70
     1
102
RTVSPost2010Prop41ColorIndex
 90
       18
102
RTVSPost2010Prop41ColorRGB
 90
        0
102
RTVSPost2010PropOp41
 70
     1
102
RTVSPost2010Prop42
 90
       50
102
RTVSPost2010PropOp42
 70
     1
102
RTVSPost2010Prop43
 90
        3
102
RTVSPost2010PropOp43
 70
     1
102
RTVSPost2010Prop44ColorIndex
 90
        5
102
RTVSPost2010Prop44ColorRGB
 90
      255
102
RTVSPost2010PropOp44
 70
     1
102
RTVSPost2010Prop45
280
     0
102
RTVSPost2010PropOp45
 70
     1
102
RTVSPost2010Prop46
 90
       50
102
RTVSPost2010PropOp46
 70
     1
102
RTVSPost2010Prop47
 90
       50
102
RTVSPost2010PropOp47
 70
     1
102
RTVSPost2010Prop48
 90
       50
102
RTVSPost2010PropOp48
 70
     1
102
RTVSPost2010Prop49
280
     0
102
RTVSPost2010PropOp49
 70
     1
102
RTVSPost2010Prop50
 90
       50
102
RTVSPost2010PropOp50
 70
     1
102
RTVSPost2010Prop51ColorIndex
 90
      256
102
RTVSPost2010Prop51ColorRGB
 90
-16777216
102
RTVSPost2010PropOp51
 70
     0
102
RTVSPost2010Prop52
140
1.0
102
RTVSPost2010PropOp52
 70
     0
102
RTVSPost2010Prop53
 90
        2
102
RTVSPost2010PropOp53
 70
     1
102
RTVSPost2010Prop54
  1
strokes_ogs.tif
102
RTVSPost2010PropOp54
 70
     1
102
RTVSPost2010Prop55
280
     0
102
RTVSPost2010PropOp55
 70
     1
102
RTVSPost2010Prop56
140
1.0
102
RTVSPost2010PropOp56
 70
     1
102
RTVSPost2010Prop57
140
1.0
102
RTVSPost2010PropOp57
 70
     1
  0
XRECORD
  5
3FB
102
{ACAD_REACTORS
330
3FA
102
}
330
3FA
100
AcDbXrecord
280
     1
102
RTVSPost2010Prop28
280
     0
102
RTVSPost2010PropOp28
 70
     1
102
RTVSPost2010Prop29
280
     1
102
RTVSPost2010PropOp29
 70
     1
102
RTVSPost2010Prop30
280
     1
102
RTVSPost2010PropOp30
 70
     1
102
RTVSPost2010Prop31
280
     0
102
RTVSPost2010PropOp31
 70
     1
102
RTVSPost2010Prop32
280
     0
102
RTVSPost2010PropOp32
 70
     1
102
RTVSPost2010Prop33
280
     0
102
RTVSPost2010PropOp33
 70
     1
102
RTVSPost2010Prop34
280
     0
102
RTVSPost2010PropOp34
 70
     1
102
RTVSPost2010Prop35
280
     0
102
RTVSPost2010PropOp35
 70
     1
102
RTVSPost2010Prop36
280
     0
102
RTVSPost2010PropOp36
 70
     1
102
RTVSPost2010Prop37
 90
       50
102
RTVSPost2010PropOp37
 70
     1
102
RTVSPost2010Prop38
140
0.0
102
RTVSPost2010PropOp38
 70
     1
102
RTVSPost2010Prop39
140
1.0
102
RTVSPost2010PropOp39
 70
     1
102
RTVSPost2010Prop40
 90
        0
102
RTVSPost2010PropOp40
 70
     1
102
RTVSPost2010Prop41ColorIndex
 90
       18
102
RTVSPost2010Prop41ColorRGB
 90
        0
102
RTVSPost2010PropOp41
 70
     1
102
RTVSPost2010Prop42
 90
       50
102
RTVSPost2010PropOp42
 70
     1
102
RTVSPost2010Prop43
 90
        3
102
RTVSPost2010PropOp43
 70
     1
102
RTVSPost2010Prop44ColorIndex
 90
        5
102
RTVSPost2010Prop44ColorRGB
 90
      255
102
RTVSPost2010PropOp44
 70
     1
102
RTVSPost2010Prop45
280
     0
102
RTVSPost2010PropOp45
 70
     1
102
RTVSPost2010Prop46
 90
       50
102
RTVSPost2010PropOp46
 70
     1
102
RTVSPost2010Prop47
 90
       50
102
RTVSPost2010PropOp47
 70
     1
102
RTVSPost2010Prop48
 90
       50
102
RTVSPost2010PropOp48
 70
     1
102
RTVSPost2010Prop49
280
     0
102
RTVSPost2010PropOp49
 70
     1
102
RTVSPost2010Prop50
 90
       50
102
RTVSPost2010PropOp50
 70
     1
102
RTVSPost2010Prop51ColorIndex
 90
      256
102
RTVSPost2010Prop51ColorRGB
 90
-16777216
102
RTVSPost2010PropOp51
 70
     0
102
RTVSPost2010Prop52
140
1.0
102
RTVSPost2010PropOp52
 70
     0
102
RTVSPost2010Prop53
 90
        2
102
RTVSPost2010PropOp53
 70
     1
102
RTVSPost2010Prop54
  1
strokes_ogs.tif
102
RTVSPost2010PropOp54
 70
     1
102
RTVSPost2010Prop55
280
     0
102
RTVSPost2010PropOp55
 70
     1
102
RTVSPost2010Prop56
140
1.0
102
RTVSPost2010PropOp56
 70
     1
102
RTVSPost2010Prop57
140
1.0
102
RTVSPost2010PropOp57
 70
     1
  0
XRECORD
  5
3FD
102
{ACAD_REACTORS
330
3FC
102
}
330
3FC
100
AcDbXrecord
280
     1
102
RTVSPost2010Prop28
280
     0
102
RTVSPost2010PropOp28
 70
     1
102
RTVSPost2010Prop29
280
     1
102
RTVSPost2010PropOp29
 70
     1
102
RTVSPost2010Prop30
280
     1
102
RTVSPost2010PropOp30
 70
     1
102
RTVSPost2010Prop31
280
     0
102
RTVSPost2010PropOp31
 70
     1
102
RTVSPost2010Prop32
280
     0
102
RTVSPost2010PropOp32
 70
     1
102
RTVSPost2010Prop33
280
     0
102
RTVSPost2010PropOp33
 70
     1
102
RTVSPost2010Prop34
280
     0
102
RTVSPost2010PropOp34
 70
     1
102
RTVSPost2010Prop35
280
     0
102
RTVSPost2010PropOp35
 70
     1
102
RTVSPost2010Prop36
280
     0
102
RTVSPost2010PropOp36
 70
     1
102
RTVSPost2010Prop37
 90
       50
102
RTVSPost2010PropOp37
 70
     1
102
RTVSPost2010Prop38
140
0.0
102
RTVSPost2010PropOp38
 70
     1
102
RTVSPost2010Prop39
140
1.0
102
RTVSPost2010PropOp39
 70
     1
102
RTVSPost2010Prop40
 90
        0
102
RTVSPost2010PropOp40
 70
     1
102
RTVSPost2010Prop41ColorIndex
 90
       18
102
RTVSPost2010Prop41ColorRGB
 90
        0
102
RTVSPost2010PropOp41
 70
     1
102
RTVSPost2010Prop42
 90
       50
102
RTVSPost2010PropOp42
 70
     1
102
RTVSPost2010Prop43
 90
        3
102
RTVSPost2010PropOp43
 70
     1
102
RTVSPost2010Prop44ColorIndex
 90
        5
102
RTVSPost2010Prop44ColorRGB
 90
      255
102
RTVSPost2010PropOp44
 70
     1
102
RTVSPost2010Prop45
280
     0
102
RTVSPost2010PropOp45
 70
     1
102
RTVSPost2010Prop46
 90
       50
102
RTVSPost2010PropOp46
 70
     1
102
RTVSPost2010Prop47
 90
       50
102
RTVSPost2010PropOp47
 70
     1
102
RTVSPost2010Prop48
 90
       50
102
RTVSPost2010PropOp48
 70
     1
102
RTVSPost2010Prop49
280
     0
102
RTVSPost2010PropOp49
 70
     1
102
RTVSPost2010Prop50
 90
       50
102
RTVSPost2010PropOp50
 70
     1
102
RTVSPost2010Prop51ColorIndex
 90
      256
102
RTVSPost2010Prop51ColorRGB
 90
-16777216
102
RTVSPost2010PropOp51
 70
     0
102
RTVSPost2010Prop52
140
1.0
102
RTVSPost2010PropOp52
 70
     0
102
RTVSPost2010Prop53
 90
        2
102
RTVSPost2010PropOp53
 70
     1
102
RTVSPost2010Prop54
  1
strokes_ogs.tif
102
RTVSPost2010PropOp54
 70
     1
102
RTVSPost2010Prop55
280
     0
102
RTVSPost2010PropOp55
 70
     1
102
RTVSPost2010Prop56
140
1.0
102
RTVSPost2010PropOp56
 70
     1
102
RTVSPost2010Prop57
140
1.0
102
RTVSPost2010PropOp57
 70
     1
  0
XRECORD
  5
3FF
102
{ACAD_REACTORS
330
3FE
102
}
330
3FE
100
AcDbXrecord
280
     1
102
RTVSPost2010Prop28
280
     0
102
RTVSPost2010PropOp28
 70
     1
102
RTVSPost2010Prop29
280
     1
102
RTVSPost2010PropOp29
 70
     1
102
RTVSPost2010Prop30
280
     1
102
RTVSPost2010PropOp30
 70
     1
102
RTVSPost2010Prop31
280
     0
102
RTVSPost2010PropOp31
 70
     1
102
RTVSPost2010Prop32
280
     0
102
RTVSPost2010PropOp32
 70
     1
102
RTVSPost2010Prop33
280
     0
102
RTVSPost2010PropOp33
 70
     1
102
RTVSPost2010Prop34
280
     0
102
RTVSPost2010PropOp34
 70
     1
102
RTVSPost2010Prop35
280
     0
102
RTVSPost2010PropOp35
 70
     1
102
RTVSPost2010Prop36
280
     0
102
RTVSPost2010PropOp36
 70
     1
102
RTVSPost2010Prop37
 90
       50
102
RTVSPost2010PropOp37
 70
     1
102
RTVSPost2010Prop38
140
0.0
102
RTVSPost2010PropOp38
 70
     1
102
RTVSPost2010Prop39
140
1.0
102
RTVSPost2010PropOp39
 70
     1
102
RTVSPost2010Prop40
 90
        0
102
RTVSPost2010PropOp40
 70
     1
102
RTVSPost2010Prop41ColorIndex
 90
       18
102
RTVSPost2010Prop41ColorRGB
 90
        0
102
RTVSPost2010PropOp41
 70
     1
102
RTVSPost2010Prop42
 90
       50
102
RTVSPost2010PropOp42
 70
     1
102
RTVSPost2010Prop43
 90
        3
102
RTVSPost2010PropOp43
 70
     1
102
RTVSPost2010Prop44ColorIndex
 90
        5
102
RTVSPost2010Prop44ColorRGB
 90
      255
102
RTVSPost2010PropOp44
 70
     1
102
RTVSPost2010Prop45
280
     0
102
RTVSPost2010PropOp45
 70
     1
102
RTVSPost2010Prop46
 90
       50
102
RTVSPost2010PropOp46
 70
     1
102
RTVSPost2010Prop47
 90
       50
102
RTVSPost2010PropOp47
 70
     1
102
RTVSPost2010Prop48
 90
       50
102
RTVSPost2010PropOp48
 70
     1
102
RTVSPost2010Prop49
280
     0
102
RTVSPost2010PropOp49
 70
     1
102
RTVSPost2010Prop50
 90
       50
102
RTVSPost2010PropOp50
 70
     1
102
RTVSPost2010Prop51ColorIndex
 90
      256
102
RTVSPost2010Prop51ColorRGB
 90
-16777216
102
RTVSPost2010PropOp51
 70
     0
102
RTVSPost2010Prop52
140
1.0
102
RTVSPost2010PropOp52
 70
     0
102
RTVSPost2010Prop53
 90
        2
102
RTVSPost2010PropOp53
 70
     1
102
RTVSPost2010Prop54
  1
strokes_ogs.tif
102
RTVSPost2010PropOp54
 70
     1
102
RTVSPost2010Prop55
280
     0
102
RTVSPost2010PropOp55
 70
     1
102
RTVSPost2010Prop56
140
1.0
102
RTVSPost2010PropOp56
 70
     1
102
RTVSPost2010Prop57
140
1.0
102
RTVSPost2010PropOp57
 70
     1
  0
XRECORD
  5
401
102
{ACAD_REACTORS
330
400
102
}
330
400
100
AcDbXrecord
280
     1
102
RTVSPost2010Prop28
280
     0
102
RTVSPost2010PropOp28
 70
     1
102
RTVSPost2010Prop29
280
     1
102
RTVSPost2010PropOp29
 70
     1
102
RTVSPost2010Prop30
280
     1
102
RTVSPost2010PropOp30
 70
     1
102
RTVSPost2010Prop31
280
     0
102
RTVSPost2010PropOp31
 70
     1
102
RTVSPost2010Prop32
280
     0
102
RTVSPost2010PropOp32
 70
     1
102
RTVSPost2010Prop33
280
     0
102
RTVSPost2010PropOp33
 70
     1
102
RTVSPost2010Prop34
280
     0
102
RTVSPost2010PropOp34
 70
     1
102
RTVSPost2010Prop35
280
     0
102
RTVSPost2010PropOp35
 70
     1
102
RTVSPost2010Prop36
280
     0
102
RTVSPost2010PropOp36
 70
     1
102
RTVSPost2010Prop37
 90
       50
102
RTVSPost2010PropOp37
 70
     1
102
RTVSPost2010Prop38
140
0.0
102
RTVSPost2010PropOp38
 70
     1
102
RTVSPost2010Prop39
140
1.0
102
RTVSPost2010PropOp39
 70
     1
102
RTVSPost2010Prop40
 90
        0
102
RTVSPost2010PropOp40
 70
     1
102
RTVSPost2010Prop41ColorIndex
 90
       18
102
RTVSPost2010Prop41ColorRGB
 90
        0
102
RTVSPost2010PropOp41
 70
     1
102
RTVSPost2010Prop42
 90
       50
102
RTVSPost2010PropOp42
 70
     1
102
RTVSPost2010Prop43
 90
        3
102
RTVSPost2010PropOp43
 70
     1
102
RTVSPost2010Prop44ColorIndex
 90
        5
102
RTVSPost2010Prop44ColorRGB
 90
      255
102
RTVSPost2010PropOp44
 70
     1
102
RTVSPost2010Prop45
280
     0
102
RTVSPost2010PropOp45
 70
     1
102
RTVSPost2010Prop46
 90
       50
102
RTVSPost2010PropOp46
 70
     1
102
RTVSPost2010Prop47
 90
       50
102
RTVSPost2010PropOp47
 70
     1
102
RTVSPost2010Prop48
 90
       50
102
RTVSPost2010PropOp48
 70
     1
102
RTVSPost2010Prop49
280
     0
102
RTVSPost2010PropOp49
 70
     1
102
RTVSPost2010Prop50
 90
       50
102
RTVSPost2010PropOp50
 70
     1
102
RTVSPost2010Prop51ColorIndex
 90
      256
102
RTVSPost2010Prop51ColorRGB
 90
-16777216
102
RTVSPost2010PropOp51
 70
     0
102
RTVSPost2010Prop52
140
1.0
102
RTVSPost2010PropOp52
 70
     0
102
RTVSPost2010Prop53
 90
        2
102
RTVSPost2010PropOp53
 70
     1
102
RTVSPost2010Prop54
  1
strokes_ogs.tif
102
RTVSPost2010PropOp54
 70
     1
102
RTVSPost2010Prop55
280
     0
102
RTVSPost2010PropOp55
 70
     1
102
RTVSPost2010Prop56
140
1.0
102
RTVSPost2010PropOp56
 70
     1
102
RTVSPost2010Prop57
140
1.0
102
RTVSPost2010PropOp57
 70
     1
  0
XRECORD
  5
407
102
{ACAD_REACTORS
330
406
102
}
330
406
100
AcDbXrecord
280
     1
102
RTVSPost2010Prop28
280
     0
102
RTVSPost2010PropOp28
 70
     1
102
RTVSPost2010Prop29
280
     1
102
RTVSPost2010PropOp29
 70
     1
102
RTVSPost2010Prop30
280
     1
102
RTVSPost2010PropOp30
 70
     1
102
RTVSPost2010Prop31
280
     0
102
RTVSPost2010PropOp31
 70
     1
102
RTVSPost2010Prop32
280
     0
102
RTVSPost2010PropOp32
 70
     1
102
RTVSPost2010Prop33
280
     0
102
RTVSPost2010PropOp33
 70
     1
102
RTVSPost2010Prop34
280
     0
102
RTVSPost2010PropOp34
 70
     1
102
RTVSPost2010Prop35
280
     0
102
RTVSPost2010PropOp35
 70
     1
102
RTVSPost2010Prop36
280
     0
102
RTVSPost2010PropOp36
 70
     1
102
RTVSPost2010Prop37
 90
       50
102
RTVSPost2010PropOp37
 70
     1
102
RTVSPost2010Prop38
140
0.0
102
RTVSPost2010PropOp38
 70
     1
102
RTVSPost2010Prop39
140
1.0
102
RTVSPost2010PropOp39
 70
     1
102
RTVSPost2010Prop40
 90
        0
102
RTVSPost2010PropOp40
 70
     1
102
RTVSPost2010Prop41ColorIndex
 90
       18
102
RTVSPost2010Prop41ColorRGB
 90
        0
102
RTVSPost2010PropOp41
 70
     1
102
RTVSPost2010Prop42
 90
       50
102
RTVSPost2010PropOp42
 70
     1
102
RTVSPost2010Prop43
 90
        3
102
RTVSPost2010PropOp43
 70
     1
102
RTVSPost2010Prop44ColorIndex
 90
        5
102
RTVSPost2010Prop44ColorRGB
 90
      255
102
RTVSPost2010PropOp44
 70
     1
102
RTVSPost2010Prop45
280
     0
102
RTVSPost2010PropOp45
 70
     1
102
RTVSPost2010Prop46
 90
       50
102
RTVSPost2010PropOp46
 70
     1
102
RTVSPost2010Prop47
 90
       50
102
RTVSPost2010PropOp47
 70
     1
102
RTVSPost2010Prop48
 90
       50
102
RTVSPost2010PropOp48
 70
     1
102
RTVSPost2010Prop49
280
     0
102
RTVSPost2010PropOp49
 70
     1
102
RTVSPost2010Prop50
 90
       50
102
RTVSPost2010PropOp50
 70
     1
102
RTVSPost2010Prop51ColorIndex
 90
      256
102
RTVSPost2010Prop51ColorRGB
 90
-16777216
102
RTVSPost2010PropOp51
 70
     0
102
RTVSPost2010Prop52
140
1.0
102
RTVSPost2010PropOp52
 70
     0
102
RTVSPost2010Prop53
 90
        2
102
RTVSPost2010PropOp53
 70
     1
102
RTVSPost2010Prop54
  1
strokes_ogs.tif
102
RTVSPost2010PropOp54
 70
     1
102
RTVSPost2010Prop55
280
     0
102
RTVSPost2010PropOp55
 70
     1
102
RTVSPost2010Prop56
140
1.0
102
RTVSPost2010PropOp56
 70
     1
102
RTVSPost2010Prop57
140
1.0
102
RTVSPost2010PropOp57
 70
     1
  0
XRECORD
  5
41B
102
{ACAD_REACTORS
330
41A
102
}
330
41A
100
AcDbXrecord
280
     1
102
RTVSPost2010Prop28
280
     0
102
RTVSPost2010PropOp28
 70
     0
102
RTVSPost2010Prop29
280
     1
102
RTVSPost2010PropOp29
 70
     0
102
RTVSPost2010Prop30
280
     1
102
RTVSPost2010PropOp30
 70
     0
102
RTVSPost2010Prop31
280
     0
102
RTVSPost2010PropOp31
 70
     0
102
RTVSPost2010Prop32
280
     0
102
RTVSPost2010PropOp32
 70
     0
102
RTVSPost2010Prop33
280
     0
102
RTVSPost2010PropOp33
 70
     0
102
RTVSPost2010Prop34
280
     0
102
RTVSPost2010PropOp34
 70
     0
102
RTVSPost2010Prop35
280
     0
102
RTVSPost2010PropOp35
 70
     0
102
RTVSPost2010Prop36
280
     0
102
RTVSPost2010PropOp36
 70
     0
102
RTVSPost2010Prop37
 90
       50
102
RTVSPost2010PropOp37
 70
     0
102
RTVSPost2010Prop38
140
0.0
102
RTVSPost2010PropOp38
 70
     0
102
RTVSPost2010Prop39
140
1.0
102
RTVSPost2010PropOp39
 70
     0
102
RTVSPost2010Prop40
 90
        0
102
RTVSPost2010PropOp40
 70
     0
102
RTVSPost2010Prop41ColorIndex
 90
       18
102
RTVSPost2010Prop41ColorRGB
 90
        0
102
RTVSPost2010PropOp41
 70
     0
102
RTVSPost2010Prop42
 90
       50
102
RTVSPost2010PropOp42
 70
     0
102
RTVSPost2010Prop43
 90
        3
102
RTVSPost2010PropOp43
 70
     0
102
RTVSPost2010Prop44ColorIndex
 90
        5
102
RTVSPost2010Prop44ColorRGB
 90
      255
102
RTVSPost2010PropOp44
 70
     0
102
RTVSPost2010Prop45
280
     0
102
RTVSPost2010PropOp45
 70
     0
102
RTVSPost2010Prop46
 90
       50
102
RTVSPost2010PropOp46
 70
     0
102
RTVSPost2010Prop47
 90
       50
102
RTVSPost2010PropOp47
 70
     0
102
RTVSPost2010Prop48
 90
       50
102
RTVSPost2010PropOp48
 70
     0
102
RTVSPost2010Prop49
280
     0
102
RTVSPost2010PropOp49
 70
     0
102
RTVSPost2010Prop50
 90
       50
102
RTVSPost2010PropOp50
 70
     0
102
RTVSPost2010Prop51ColorIndex
 90
      256
102
RTVSPost2010Prop51ColorRGB
 90
-16777216
102
RTVSPost2010PropOp51
 70
     0
102
RTVSPost2010Prop52
140
1.0
102
RTVSPost2010PropOp52
 70
     0
102
RTVSPost2010Prop53
 90
        2
102
RTVSPost2010PropOp53
 70
     0
102
RTVSPost2010Prop54
  1
strokes_ogs.tif
102
RTVSPost2010PropOp54
 70
     0
102
RTVSPost2010Prop55
280
     0
102
RTVSPost2010PropOp55
 70
     0
102
RTVSPost2010Prop56
140
1.0
102
RTVSPost2010PropOp56
 70
     0
102
RTVSPost2010Prop57
140
1.0
102
RTVSPost2010PropOp57
 70
     0
  0
XRECORD
  5
415
102
{ACAD_REACTORS
330
414
102
}
330
414
100
AcDbXrecord
280
     1
102
RTVSPost2010Prop28
280
     0
102
RTVSPost2010PropOp28
 70
     1
102
RTVSPost2010Prop29
280
     1
102
RTVSPost2010PropOp29
 70
     1
102
RTVSPost2010Prop30
280
     1
102
RTVSPost2010PropOp30
 70
     1
102
RTVSPost2010Prop31
280
     0
102
RTVSPost2010PropOp31
 70
     1
102
RTVSPost2010Prop32
280
     0
102
RTVSPost2010PropOp32
 70
     1
102
RTVSPost2010Prop33
280
     0
102
RTVSPost2010PropOp33
 70
     1
102
RTVSPost2010Prop34
280
     0
102
RTVSPost2010PropOp34
 70
     1
102
RTVSPost2010Prop35
280
     0
102
RTVSPost2010PropOp35
 70
     1
102
RTVSPost2010Prop36
280
     0
102
RTVSPost2010PropOp36
 70
     1
102
RTVSPost2010Prop37
 90
       50
102
RTVSPost2010PropOp37
 70
     1
102
RTVSPost2010Prop38
140
0.0
102
RTVSPost2010PropOp38
 70
     1
102
RTVSPost2010Prop39
140
1.0
102
RTVSPost2010PropOp39
 70
     1
102
RTVSPost2010Prop40
 90
        0
102
RTVSPost2010PropOp40
 70
     1
102
RTVSPost2010Prop41ColorIndex
 90
       18
102
RTVSPost2010Prop41ColorRGB
 90
        0
102
RTVSPost2010PropOp41
 70
     1
102
RTVSPost2010Prop42
 90
       50
102
RTVSPost2010PropOp42
 70
     1
102
RTVSPost2010Prop43
 90
        3
102
RTVSPost2010PropOp43
 70
     1
102
RTVSPost2010Prop44ColorIndex
 90
        5
102
RTVSPost2010Prop44ColorRGB
 90
      255
102
RTVSPost2010PropOp44
 70
     1
102
RTVSPost2010Prop45
280
     0
102
RTVSPost2010PropOp45
 70
     1
102
RTVSPost2010Prop46
 90
       50
102
RTVSPost2010PropOp46
 70
     1
102
RTVSPost2010Prop47
 90
       50
102
RTVSPost2010PropOp47
 70
     1
102
RTVSPost2010Prop48
 90
       50
102
RTVSPost2010PropOp48
 70
     1
102
RTVSPost2010Prop49
280
     0
102
RTVSPost2010PropOp49
 70
     1
102
RTVSPost2010Prop50
 90
       50
102
RTVSPost2010PropOp50
 70
     1
102
RTVSPost2010Prop51ColorIndex
 90
      256
102
RTVSPost2010Prop51ColorRGB
 90
-16777216
102
RTVSPost2010PropOp51
 70
     0
102
RTVSPost2010Prop52
140
1.0
102
RTVSPost2010PropOp52
 70
     0
102
RTVSPost2010Prop53
 90
        2
102
RTVSPost2010PropOp53
 70
     1
102
RTVSPost2010Prop54
  1
strokes_ogs.tif
102
RTVSPost2010PropOp54
 70
     1
102
RTVSPost2010Prop55
280
     0
102
RTVSPost2010PropOp55
 70
     1
102
RTVSPost2010Prop56
140
1.0
102
RTVSPost2010PropOp56
 70
     1
102
RTVSPost2010Prop57
140
1.0
102
RTVSPost2010PropOp57
 70
     1
  0
XRECORD
  5
41D
102
{ACAD_REACTORS
330
41C
102
}
330
41C
100
AcDbXrecord
280
     1
102
RTVSPost2010Prop28
280
     0
102
RTVSPost2010PropOp28
 70
     0
102
RTVSPost2010Prop29
280
     1
102
RTVSPost2010PropOp29
 70
     0
102
RTVSPost2010Prop30
280
     1
102
RTVSPost2010PropOp30
 70
     0
102
RTVSPost2010Prop31
280
     0
102
RTVSPost2010PropOp31
 70
     0
102
RTVSPost2010Prop32
280
     0
102
RTVSPost2010PropOp32
 70
     0
102
RTVSPost2010Prop33
280
     0
102
RTVSPost2010PropOp33
 70
     0
102
RTVSPost2010Prop34
280
     0
102
RTVSPost2010PropOp34
 70
     0
102
RTVSPost2010Prop35
280
     0
102
RTVSPost2010PropOp35
 70
     0
102
RTVSPost2010Prop36
280
     0
102
RTVSPost2010PropOp36
 70
     0
102
RTVSPost2010Prop37
 90
       50
102
RTVSPost2010PropOp37
 70
     0
102
RTVSPost2010Prop38
140
0.0
102
RTVSPost2010PropOp38
 70
     0
102
RTVSPost2010Prop39
140
1.0
102
RTVSPost2010PropOp39
 70
     0
102
RTVSPost2010Prop40
 90
        0
102
RTVSPost2010PropOp40
 70
     0
102
RTVSPost2010Prop41ColorIndex
 90
       18
102
RTVSPost2010Prop41ColorRGB
 90
        0
102
RTVSPost2010PropOp41
 70
     0
102
RTVSPost2010Prop42
 90
       50
102
RTVSPost2010PropOp42
 70
     0
102
RTVSPost2010Prop43
 90
        3
102
RTVSPost2010PropOp43
 70
     0
102
RTVSPost2010Prop44ColorIndex
 90
        5
102
RTVSPost2010Prop44ColorRGB
 90
      255
102
RTVSPost2010PropOp44
 70
     0
102
RTVSPost2010Prop45
280
     0
102
RTVSPost2010PropOp45
 70
     0
102
RTVSPost2010Prop46
 90
       50
102
RTVSPost2010PropOp46
 70
     0
102
RTVSPost2010Prop47
 90
       50
102
RTVSPost2010PropOp47
 70
     0
102
RTVSPost2010Prop48
 90
       50
102
RTVSPost2010PropOp48
 70
     0
102
RTVSPost2010Prop49
280
     0
102
RTVSPost2010PropOp49
 70
     0
102
RTVSPost2010Prop50
 90
       50
102
RTVSPost2010PropOp50
 70
     0
102
RTVSPost2010Prop51ColorIndex
 90
      256
102
RTVSPost2010Prop51ColorRGB
 90
-16777216
102
RTVSPost2010PropOp51
 70
     0
102
RTVSPost2010Prop52
140
1.0
102
RTVSPost2010PropOp52
 70
     0
102
RTVSPost2010Prop53
 90
        2
102
RTVSPost2010PropOp53
 70
     0
102
RTVSPost2010Prop54
  1
strokes_ogs.tif
102
RTVSPost2010PropOp54
 70
     0
102
RTVSPost2010Prop55
280
     0
102
RTVSPost2010PropOp55
 70
     0
102
RTVSPost2010Prop56
140
1.0
102
RTVSPost2010PropOp56
 70
     0
102
RTVSPost2010Prop57
140
1.0
102
RTVSPost2010PropOp57
 70
     0
  0
XRECORD
  5
40B
102
{ACAD_REACTORS
330
40A
102
}
330
40A
100
AcDbXrecord
280
     1
102
RTVSPost2010Prop28
280
     0
102
RTVSPost2010PropOp28
 70
     1
102
RTVSPost2010Prop29
280
     1
102
RTVSPost2010PropOp29
 70
     1
102
RTVSPost2010Prop30
280
     1
102
RTVSPost2010PropOp30
 70
     1
102
RTVSPost2010Prop31
280
     0
102
RTVSPost2010PropOp31
 70
     1
102
RTVSPost2010Prop32
280
     0
102
RTVSPost2010PropOp32
 70
     1
102
RTVSPost2010Prop33
280
     0
102
RTVSPost2010PropOp33
 70
     1
102
RTVSPost2010Prop34
280
     0
102
RTVSPost2010PropOp34
 70
     1
102
RTVSPost2010Prop35
280
     0
102
RTVSPost2010PropOp35
 70
     1
102
RTVSPost2010Prop36
280
     0
102
RTVSPost2010PropOp36
 70
     1
102
RTVSPost2010Prop37
 90
       50
102
RTVSPost2010PropOp37
 70
     1
102
RTVSPost2010Prop38
140
0.0
102
RTVSPost2010PropOp38
 70
     1
102
RTVSPost2010Prop39
140
1.0
102
RTVSPost2010PropOp39
 70
     1
102
RTVSPost2010Prop40
 90
        0
102
RTVSPost2010PropOp40
 70
     1
102
RTVSPost2010Prop41ColorIndex
 90
       18
102
RTVSPost2010Prop41ColorRGB
 90
        0
102
RTVSPost2010PropOp41
 70
     1
102
RTVSPost2010Prop42
 90
       50
102
RTVSPost2010PropOp42
 70
     1
102
RTVSPost2010Prop43
 90
        3
102
RTVSPost2010PropOp43
 70
     1
102
RTVSPost2010Prop44ColorIndex
 90
        5
102
RTVSPost2010Prop44ColorRGB
 90
      255
102
RTVSPost2010PropOp44
 70
     1
102
RTVSPost2010Prop45
280
     0
102
RTVSPost2010PropOp45
 70
     1
102
RTVSPost2010Prop46
 90
       50
102
RTVSPost2010PropOp46
 70
     1
102
RTVSPost2010Prop47
 90
       50
102
RTVSPost2010PropOp47
 70
     1
102
RTVSPost2010Prop48
 90
       50
102
RTVSPost2010PropOp48
 70
     1
102
RTVSPost2010Prop49
280
     0
102
RTVSPost2010PropOp49
 70
     1
102
RTVSPost2010Prop50
 90
       50
102
RTVSPost2010PropOp50
 70
     1
102
RTVSPost2010Prop51ColorIndex
 90
      256
102
RTVSPost2010Prop51ColorRGB
 90
-16777216
102
RTVSPost2010PropOp51
 70
     0
102
RTVSPost2010Prop52
140
1.0
102
RTVSPost2010PropOp52
 70
     0
102
RTVSPost2010Prop53
 90
        2
102
RTVSPost2010PropOp53
 70
     1
102
RTVSPost2010Prop54
  1
strokes_ogs.tif
102
RTVSPost2010PropOp54
 70
     1
102
RTVSPost2010Prop55
280
     0
102
RTVSPost2010PropOp55
 70
     1
102
RTVSPost2010Prop56
140
1.0
102
RTVSPost2010PropOp56
 70
     1
102
RTVSPost2010Prop57
140
1.0
102
RTVSPost2010PropOp57
 70
     1
  0
XRECORD
  5
429
102
{ACAD_REACTORS
330
428
102
}
330
428
100
AcDbXrecord
280
     1
102
RTVSPost2010Prop28
280
     0
102
RTVSPost2010PropOp28
 70
     1
102
RTVSPost2010Prop29
280
     1
102
RTVSPost2010PropOp29
 70
     1
102
RTVSPost2010Prop30
280
     1
102
RTVSPost2010PropOp30
 70
     1
102
RTVSPost2010Prop31
280
     0
102
RTVSPost2010PropOp31
 70
     1
102
RTVSPost2010Prop32
280
     0
102
RTVSPost2010PropOp32
 70
     1
102
RTVSPost2010Prop33
280
     0
102
RTVSPost2010PropOp33
 70
     1
102
RTVSPost2010Prop34
280
     0
102
RTVSPost2010PropOp34
 70
     1
102
RTVSPost2010Prop35
280
     0
102
RTVSPost2010PropOp35
 70
     1
102
RTVSPost2010Prop36
280
     0
102
RTVSPost2010PropOp36
 70
     1
102
RTVSPost2010Prop37
 90
       50
102
RTVSPost2010PropOp37
 70
     1
102
RTVSPost2010Prop38
140
0.0
102
RTVSPost2010PropOp38
 70
     1
102
RTVSPost2010Prop39
140
1.0
102
RTVSPost2010PropOp39
 70
     1
102
RTVSPost2010Prop40
 90
        0
102
RTVSPost2010PropOp40
 70
     1
102
RTVSPost2010Prop41ColorIndex
 90
       18
102
RTVSPost2010Prop41ColorRGB
 90
        0
102
RTVSPost2010PropOp41
 70
     1
102
RTVSPost2010Prop42
 90
       50
102
RTVSPost2010PropOp42
 70
     1
102
RTVSPost2010Prop43
 90
        3
102
RTVSPost2010PropOp43
 70
     1
102
RTVSPost2010Prop44ColorIndex
 90
        5
102
RTVSPost2010Prop44ColorRGB
 90
      255
102
RTVSPost2010PropOp44
 70
     1
102
RTVSPost2010Prop45
280
     0
102
RTVSPost2010PropOp45
 70
     1
102
RTVSPost2010Prop46
 90
       50
102
RTVSPost2010PropOp46
 70
     1
102
RTVSPost2010Prop47
 90
       50
102
RTVSPost2010PropOp47
 70
     1
102
RTVSPost2010Prop48
 90
       50
102
RTVSPost2010PropOp48
 70
     1
102
RTVSPost2010Prop49
280
     0
102
RTVSPost2010PropOp49
 70
     1
102
RTVSPost2010Prop50
 90
       50
102
RTVSPost2010PropOp50
 70
     1
102
RTVSPost2010Prop51ColorIndex
 90
      256
102
RTVSPost2010Prop51ColorRGB
 90
-16777216
102
RTVSPost2010PropOp51
 70
     0
102
RTVSPost2010Prop52
140
1.0
102
RTVSPost2010PropOp52
 70
     0
102
RTVSPost2010Prop53
 90
        2
102
RTVSPost2010PropOp53
 70
     1
102
RTVSPost2010Prop54
  1
strokes_ogs.tif
102
RTVSPost2010PropOp54
 70
     1
102
RTVSPost2010Prop55
280
     0
102
RTVSPost2010PropOp55
 70
     1
102
RTVSPost2010Prop56
140
1.0
102
RTVSPost2010PropOp56
 70
     1
102
RTVSPost2010Prop57
140
1.0
102
RTVSPost2010PropOp57
 70
     1
  0
XRECORD
  5
427
102
{ACAD_REACTORS
330
426
102
}
330
426
100
AcDbXrecord
280
     1
102
RTVSPost2010Prop28
280
     0
102
RTVSPost2010PropOp28
 70
     1
102
RTVSPost2010Prop29
280
     1
102
RTVSPost2010PropOp29
 70
     1
102
RTVSPost2010Prop30
280
     1
102
RTVSPost2010PropOp30
 70
     1
102
RTVSPost2010Prop31
280
     0
102
RTVSPost2010PropOp31
 70
     1
102
RTVSPost2010Prop32
280
     0
102
RTVSPost2010PropOp32
 70
     1
102
RTVSPost2010Prop33
280
     0
102
RTVSPost2010PropOp33
 70
     1
102
RTVSPost2010Prop34
280
     0
102
RTVSPost2010PropOp34
 70
     1
102
RTVSPost2010Prop35
280
     0
102
RTVSPost2010PropOp35
 70
     1
102
RTVSPost2010Prop36
280
     0
102
RTVSPost2010PropOp36
 70
     1
102
RTVSPost2010Prop37
 90
       50
102
RTVSPost2010PropOp37
 70
     1
102
RTVSPost2010Prop38
140
0.0
102
RTVSPost2010PropOp38
 70
     1
102
RTVSPost2010Prop39
140
1.0
102
RTVSPost2010PropOp39
 70
     1
102
RTVSPost2010Prop40
 90
        0
102
RTVSPost2010PropOp40
 70
     1
102
RTVSPost2010Prop41ColorIndex
 90
       18
102
RTVSPost2010Prop41ColorRGB
 90
        0
102
RTVSPost2010PropOp41
 70
     1
102
RTVSPost2010Prop42
 90
       50
102
RTVSPost2010PropOp42
 70
     1
102
RTVSPost2010Prop43
 90
        3
102
RTVSPost2010PropOp43
 70
     1
102
RTVSPost2010Prop44ColorIndex
 90
        5
102
RTVSPost2010Prop44ColorRGB
 90
      255
102
RTVSPost2010PropOp44
 70
     1
102
RTVSPost2010Prop45
280
     0
102
RTVSPost2010PropOp45
 70
     1
102
RTVSPost2010Prop46
 90
       50
102
RTVSPost2010PropOp46
 70
     1
102
RTVSPost2010Prop47
 90
       50
102
RTVSPost2010PropOp47
 70
     1
102
RTVSPost2010Prop48
 90
       50
102
RTVSPost2010PropOp48
 70
     1
102
RTVSPost2010Prop49
280
     0
102
RTVSPost2010PropOp49
 70
     1
102
RTVSPost2010Prop50
 90
       50
102
RTVSPost2010PropOp50
 70
     1
102
RTVSPost2010Prop51ColorIndex
 90
      256
102
RTVSPost2010Prop51ColorRGB
 90
-16777216
102
RTVSPost2010PropOp51
 70
     0
102
RTVSPost2010Prop52
140
1.0
102
RTVSPost2010PropOp52
 70
     0
102
RTVSPost2010Prop53
 90
        2
102
RTVSPost2010PropOp53
 70
     1
102
RTVSPost2010Prop54
  1
strokes_ogs.tif
102
RTVSPost2010PropOp54
 70
     1
102
RTVSPost2010Prop55
280
     0
102
RTVSPost2010PropOp55
 70
     1
102
RTVSPost2010Prop56
140
1.0
102
RTVSPost2010PropOp56
 70
     1
102
RTVSPost2010Prop57
140
1.0
102
RTVSPost2010PropOp57
 70
     1
  0
XRECORD
  5
421
102
{ACAD_REACTORS
330
420
102
}
330
420
100
AcDbXrecord
280
     1
102
RTVSPost2010Prop28
280
     0
102
RTVSPost2010PropOp28
 70
     1
102
RTVSPost2010Prop29
280
     1
102
RTVSPost2010PropOp29
 70
     1
102
RTVSPost2010Prop30
280
     1
102
RTVSPost2010PropOp30
 70
     1
102
RTVSPost2010Prop31
280
     0
102
RTVSPost2010PropOp31
 70
     1
102
RTVSPost2010Prop32
280
     0
102
RTVSPost2010PropOp32
 70
     1
102
RTVSPost2010Prop33
280
     0
102
RTVSPost2010PropOp33
 70
     1
102
RTVSPost2010Prop34
280
     0
102
RTVSPost2010PropOp34
 70
     1
102
RTVSPost2010Prop35
280
     0
102
RTVSPost2010PropOp35
 70
     1
102
RTVSPost2010Prop36
280
     0
102
RTVSPost2010PropOp36
 70
     1
102
RTVSPost2010Prop37
 90
       50
102
RTVSPost2010PropOp37
 70
     1
102
RTVSPost2010Prop38
140
0.0
102
RTVSPost2010PropOp38
 70
     1
102
RTVSPost2010Prop39
140
1.0
102
RTVSPost2010PropOp39
 70
     1
102
RTVSPost2010Prop40
 90
        0
102
RTVSPost2010PropOp40
 70
     1
102
RTVSPost2010Prop41ColorIndex
 90
       18
102
RTVSPost2010Prop41ColorRGB
 90
        0
102
RTVSPost2010PropOp41
 70
     1
102
RTVSPost2010Prop42
 90
       50
102
RTVSPost2010PropOp42
 70
     1
102
RTVSPost2010Prop43
 90
        3
102
RTVSPost2010PropOp43
 70
     1
102
RTVSPost2010Prop44ColorIndex
 90
        5
102
RTVSPost2010Prop44ColorRGB
 90
      255
102
RTVSPost2010PropOp44
 70
     1
102
RTVSPost2010Prop45
280
     0
102
RTVSPost2010PropOp45
 70
     1
102
RTVSPost2010Prop46
 90
       50
102
RTVSPost2010PropOp46
 70
     1
102
RTVSPost2010Prop47
 90
       50
102
RTVSPost2010PropOp47
 70
     1
102
RTVSPost2010Prop48
 90
       50
102
RTVSPost2010PropOp48
 70
     1
102
RTVSPost2010Prop49
280
     0
102
RTVSPost2010PropOp49
 70
     1
102
RTVSPost2010Prop50
 90
       50
102
RTVSPost2010PropOp50
 70
     1
102
RTVSPost2010Prop51ColorIndex
 90
      256
102
RTVSPost2010Prop51ColorRGB
 90
-16777216
102
RTVSPost2010PropOp51
 70
     0
102
RTVSPost2010Prop52
140
1.0
102
RTVSPost2010PropOp52
 70
     0
102
RTVSPost2010Prop53
 90
        2
102
RTVSPost2010PropOp53
 70
     1
102
RTVSPost2010Prop54
  1
strokes_ogs.tif
102
RTVSPost2010PropOp54
 70
     1
102
RTVSPost2010Prop55
280
     0
102
RTVSPost2010PropOp55
 70
     1
102
RTVSPost2010Prop56
140
1.0
102
RTVSPost2010PropOp56
 70
     1
102
RTVSPost2010Prop57
140
1.0
102
RTVSPost2010PropOp57
 70
     1
  0
XRECORD
  5
423
102
{ACAD_REACTORS
330
422
102
}
330
422
100
AcDbXrecord
280
     1
102
RTVSPost2010Prop28
280
     0
102
RTVSPost2010PropOp28
 70
     1
102
RTVSPost2010Prop29
280
     1
102
RTVSPost2010PropOp29
 70
     1
102
RTVSPost2010Prop30
280
     1
102
RTVSPost2010PropOp30
 70
     1
102
RTVSPost2010Prop31
280
     0
102
RTVSPost2010PropOp31
 70
     1
102
RTVSPost2010Prop32
280
     0
102
RTVSPost2010PropOp32
 70
     1
102
RTVSPost2010Prop33
280
     0
102
RTVSPost2010PropOp33
 70
     1
102
RTVSPost2010Prop34
280
     0
102
RTVSPost2010PropOp34
 70
     1
102
RTVSPost2010Prop35
280
     0
102
RTVSPost2010PropOp35
 70
     1
102
RTVSPost2010Prop36
280
     0
102
RTVSPost2010PropOp36
 70
     1
102
RTVSPost2010Prop37
 90
       50
102
RTVSPost2010PropOp37
 70
     1
102
RTVSPost2010Prop38
140
0.0
102
RTVSPost2010PropOp38
 70
     1
102
RTVSPost2010Prop39
140
1.0
102
RTVSPost2010PropOp39
 70
     1
102
RTVSPost2010Prop40
 90
        0
102
RTVSPost2010PropOp40
 70
     1
102
RTVSPost2010Prop41ColorIndex
 90
       18
102
RTVSPost2010Prop41ColorRGB
 90
        0
102
RTVSPost2010PropOp41
 70
     1
102
RTVSPost2010Prop42
 90
       50
102
RTVSPost2010PropOp42
 70
     1
102
RTVSPost2010Prop43
 90
        3
102
RTVSPost2010PropOp43
 70
     1
102
RTVSPost2010Prop44ColorIndex
 90
        5
102
RTVSPost2010Prop44ColorRGB
 90
      255
102
RTVSPost2010PropOp44
 70
     1
102
RTVSPost2010Prop45
280
     0
102
RTVSPost2010PropOp45
 70
     1
102
RTVSPost2010Prop46
 90
       50
102
RTVSPost2010PropOp46
 70
     1
102
RTVSPost2010Prop47
 90
       50
102
RTVSPost2010PropOp47
 70
     1
102
RTVSPost2010Prop48
 90
       50
102
RTVSPost2010PropOp48
 70
     1
102
RTVSPost2010Prop49
280
     0
102
RTVSPost2010PropOp49
 70
     1
102
RTVSPost2010Prop50
 90
       50
102
RTVSPost2010PropOp50
 70
     1
102
RTVSPost2010Prop51ColorIndex
 90
      256
102
RTVSPost2010Prop51ColorRGB
 90
-16777216
102
RTVSPost2010PropOp51
 70
     0
102
RTVSPost2010Prop52
140
1.0
102
RTVSPost2010PropOp52
 70
     0
102
RTVSPost2010Prop53
 90
        2
102
RTVSPost2010PropOp53
 70
     1
102
RTVSPost2010Prop54
  1
strokes_ogs.tif
102
RTVSPost2010PropOp54
 70
     1
102
RTVSPost2010Prop55
280
     0
102
RTVSPost2010PropOp55
 70
     1
102
RTVSPost2010Prop56
140
1.0
102
RTVSPost2010PropOp56
 70
     1
102
RTVSPost2010Prop57
140
1.0
102
RTVSPost2010PropOp57
 70
     1
  0
XRECORD
  5
413
102
{ACAD_REACTORS
330
412
102
}
330
412
100
AcDbXrecord
280
     1
102
RTVSPost2010Prop28
280
     0
102
RTVSPost2010PropOp28
 70
     1
102
RTVSPost2010Prop29
280
     1
102
RTVSPost2010PropOp29
 70
     1
102
RTVSPost2010Prop30
280
     1
102
RTVSPost2010PropOp30
 70
     1
102
RTVSPost2010Prop31
280
     0
102
RTVSPost2010PropOp31
 70
     1
102
RTVSPost2010Prop32
280
     0
102
RTVSPost2010PropOp32
 70
     1
102
RTVSPost2010Prop33
280
     0
102
RTVSPost2010PropOp33
 70
     1
102
RTVSPost2010Prop34
280
     0
102
RTVSPost2010PropOp34
 70
     1
102
RTVSPost2010Prop35
280
     0
102
RTVSPost2010PropOp35
 70
     1
102
RTVSPost2010Prop36
280
     0
102
RTVSPost2010PropOp36
 70
     1
102
RTVSPost2010Prop37
 90
       50
102
RTVSPost2010PropOp37
 70
     1
102
RTVSPost2010Prop38
140
0.0
102
RTVSPost2010PropOp38
 70
     1
102
RTVSPost2010Prop39
140
1.0
102
RTVSPost2010PropOp39
 70
     1
102
RTVSPost2010Prop40
 90
        0
102
RTVSPost2010PropOp40
 70
     1
102
RTVSPost2010Prop41ColorIndex
 90
       18
102
RTVSPost2010Prop41ColorRGB
 90
        0
102
RTVSPost2010PropOp41
 70
     1
102
RTVSPost2010Prop42
 90
       50
102
RTVSPost2010PropOp42
 70
     1
102
RTVSPost2010Prop43
 90
        3
102
RTVSPost2010PropOp43
 70
     1
102
RTVSPost2010Prop44ColorIndex
 90
        5
102
RTVSPost2010Prop44ColorRGB
 90
      255
102
RTVSPost2010PropOp44
 70
     1
102
RTVSPost2010Prop45
280
     0
102
RTVSPost2010PropOp45
 70
     1
102
RTVSPost2010Prop46
 90
       50
102
RTVSPost2010PropOp46
 70
     1
102
RTVSPost2010Prop47
 90
       50
102
RTVSPost2010PropOp47
 70
     1
102
RTVSPost2010Prop48
 90
       50
102
RTVSPost2010PropOp48
 70
     1
102
RTVSPost2010Prop49
280
     0
102
RTVSPost2010PropOp49
 70
     1
102
RTVSPost2010Prop50
 90
       50
102
RTVSPost2010PropOp50
 70
     1
102
RTVSPost2010Prop51ColorIndex
 90
      256
102
RTVSPost2010Prop51ColorRGB
 90
-16777216
102
RTVSPost2010PropOp51
 70
     0
102
RTVSPost2010Prop52
140
1.0
102
RTVSPost2010PropOp52
 70
     0
102
RTVSPost2010Prop53
 90
        2
102
RTVSPost2010PropOp53
 70
     1
102
RTVSPost2010Prop54
  1
strokes_ogs.tif
102
RTVSPost2010PropOp54
 70
     1
102
RTVSPost2010Prop55
280
     0
102
RTVSPost2010PropOp55
 70
     1
102
RTVSPost2010Prop56
140
1.0
102
RTVSPost2010PropOp56
 70
     1
102
RTVSPost2010Prop57
140
1.0
102
RTVSPost2010PropOp57
 70
     1
  0
XRECORD
  5
405
102
{ACAD_REACTORS
330
404
102
}
330
404
100
AcDbXrecord
280
     1
102
RTVSPost2010Prop28
280
     0
102
RTVSPost2010PropOp28
 70
     1
102
RTVSPost2010Prop29
280
     1
102
RTVSPost2010PropOp29
 70
     1
102
RTVSPost2010Prop30
280
     1
102
RTVSPost2010PropOp30
 70
     1
102
RTVSPost2010Prop31
280
     0
102
RTVSPost2010PropOp31
 70
     1
102
RTVSPost2010Prop32
280
     0
102
RTVSPost2010PropOp32
 70
     1
102
RTVSPost2010Prop33
280
     0
102
RTVSPost2010PropOp33
 70
     1
102
RTVSPost2010Prop34
280
     0
102
RTVSPost2010PropOp34
 70
     1
102
RTVSPost2010Prop35
280
     0
102
RTVSPost2010PropOp35
 70
     1
102
RTVSPost2010Prop36
280
     0
102
RTVSPost2010PropOp36
 70
     1
102
RTVSPost2010Prop37
 90
       50
102
RTVSPost2010PropOp37
 70
     1
102
RTVSPost2010Prop38
140
0.0
102
RTVSPost2010PropOp38
 70
     1
102
RTVSPost2010Prop39
140
1.0
102
RTVSPost2010PropOp39
 70
     1
102
RTVSPost2010Prop40
 90
        0
102
RTVSPost2010PropOp40
 70
     1
102
RTVSPost2010Prop41ColorIndex
 90
       18
102
RTVSPost2010Prop41ColorRGB
 90
        0
102
RTVSPost2010PropOp41
 70
     1
102
RTVSPost2010Prop42
 90
       50
102
RTVSPost2010PropOp42
 70
     1
102
RTVSPost2010Prop43
 90
        3
102
RTVSPost2010PropOp43
 70
     1
102
RTVSPost2010Prop44ColorIndex
 90
        5
102
RTVSPost2010Prop44ColorRGB
 90
      255
102
RTVSPost2010PropOp44
 70
     1
102
RTVSPost2010Prop45
280
     0
102
RTVSPost2010PropOp45
 70
     1
102
RTVSPost2010Prop46
 90
       50
102
RTVSPost2010PropOp46
 70
     1
102
RTVSPost2010Prop47
 90
       50
102
RTVSPost2010PropOp47
 70
     1
102
RTVSPost2010Prop48
 90
       50
102
RTVSPost2010PropOp48
 70
     1
102
RTVSPost2010Prop49
280
     0
102
RTVSPost2010PropOp49
 70
     1
102
RTVSPost2010Prop50
 90
       50
102
RTVSPost2010PropOp50
 70
     1
102
RTVSPost2010Prop51ColorIndex
 90
      256
102
RTVSPost2010Prop51ColorRGB
 90
-16777216
102
RTVSPost2010PropOp51
 70
     0
102
RTVSPost2010Prop52
140
1.0
102
RTVSPost2010PropOp52
 70
     0
102
RTVSPost2010Prop53
 90
        2
102
RTVSPost2010PropOp53
 70
     1
102
RTVSPost2010Prop54
  1
strokes_ogs.tif
102
RTVSPost2010PropOp54
 70
     1
102
RTVSPost2010Prop55
280
     0
102
RTVSPost2010PropOp55
 70
     1
102
RTVSPost2010Prop56
140
1.0
102
RTVSPost2010PropOp56
 70
     1
102
RTVSPost2010Prop57
140
1.0
102
RTVSPost2010PropOp57
 70
     1
  0
XRECORD
  5
425
102
{ACAD_REACTORS
330
424
102
}
330
424
100
AcDbXrecord
280
     1
102
RTVSPost2010Prop28
280
     0
102
RTVSPost2010PropOp28
 70
     1
102
RTVSPost2010Prop29
280
     1
102
RTVSPost2010PropOp29
 70
     1
102
RTVSPost2010Prop30
280
     1
102
RTVSPost2010PropOp30
 70
     1
102
RTVSPost2010Prop31
280
     0
102
RTVSPost2010PropOp31
 70
     1
102
RTVSPost2010Prop32
280
     0
102
RTVSPost2010PropOp32
 70
     1
102
RTVSPost2010Prop33
280
     0
102
RTVSPost2010PropOp33
 70
     1
102
RTVSPost2010Prop34
280
     0
102
RTVSPost2010PropOp34
 70
     1
102
RTVSPost2010Prop35
280
     0
102
RTVSPost2010PropOp35
 70
     1
102
RTVSPost2010Prop36
280
     0
102
RTVSPost2010PropOp36
 70
     1
102
RTVSPost2010Prop37
 90
       50
102
RTVSPost2010PropOp37
 70
     1
102
RTVSPost2010Prop38
140
0.0
102
RTVSPost2010PropOp38
 70
     1
102
RTVSPost2010Prop39
140
1.0
102
RTVSPost2010PropOp39
 70
     1
102
RTVSPost2010Prop40
 90
        0
102
RTVSPost2010PropOp40
 70
     1
102
RTVSPost2010Prop41ColorIndex
 90
       18
102
RTVSPost2010Prop41ColorRGB
 90
        0
102
RTVSPost2010PropOp41
 70
     1
102
RTVSPost2010Prop42
 90
       50
102
RTVSPost2010PropOp42
 70
     1
102
RTVSPost2010Prop43
 90
        3
102
RTVSPost2010PropOp43
 70
     1
102
RTVSPost2010Prop44ColorIndex
 90
        5
102
RTVSPost2010Prop44ColorRGB
 90
      255
102
RTVSPost2010PropOp44
 70
     1
102
RTVSPost2010Prop45
280
     0
102
RTVSPost2010PropOp45
 70
     1
102
RTVSPost2010Prop46
 90
       50
102
RTVSPost2010PropOp46
 70
     1
102
RTVSPost2010Prop47
 90
       50
102
RTVSPost2010PropOp47
 70
     1
102
RTVSPost2010Prop48
 90
       50
102
RTVSPost2010PropOp48
 70
     1
102
RTVSPost2010Prop49
280
     0
102
RTVSPost2010PropOp49
 70
     1
102
RTVSPost2010Prop50
 90
       50
102
RTVSPost2010PropOp50
 70
     1
102
RTVSPost2010Prop51ColorIndex
 90
      256
102
RTVSPost2010Prop51ColorRGB
 90
-16777216
102
RTVSPost2010PropOp51
 70
     0
102
RTVSPost2010Prop52
140
1.0
102
RTVSPost2010PropOp52
 70
     0
102
RTVSPost2010Prop53
 90
        2
102
RTVSPost2010PropOp53
 70
     1
102
RTVSPost2010Prop54
  1
strokes_ogs.tif
102
RTVSPost2010PropOp54
 70
     1
102
RTVSPost2010Prop55
280
     0
102
RTVSPost2010PropOp55
 70
     1
102
RTVSPost2010Prop56
140
1.0
102
RTVSPost2010PropOp56
 70
     1
102
RTVSPost2010Prop57
140
1.0
102
RTVSPost2010PropOp57
 70
     1
  0
ENDSEC
  0
EOF
